Your One-Stop Source For
Music Lyrics
Bass and Guitar Tabs
and More...
Music Lyrics Bass and Guitar Tabs

 

The Tabs Are Below

Learn To Read Tab
Chords Handbook
Corrections & Additions
Get Official Tab
Oasis tabs @ 911Tabs

"Wonderwall" by Oasis

 

In this song, you have to capo the 2nd fret

 

Intro

 

E-5---5-5-5----5-5-5-5-5-5-5---5--5-5-5-5------|

B-5---5-5-5----5-5-5-5-5-5-5---5--5-5-5-5------|

G-2---2-2-2--2-2-2-2-2-4-4-4-2-4--4-4-4-4-2-2--|

D-4---4-4-4--2-2-2-2-2-2-2-2-2-4--4-4-4-4-2-2--|

A-4---4--------4-4-4-4---------2--2-2-2-2------|

E-2-2----------5-5-5-5-------------------------|

 

Verse 1

Same as intro

 

End of verse 1

 

E-5---5-5-5-5--5-5-5-5-5---------5--5--5-5--5--5-5-5---|

B-2---2-2-2-5--5-5-5-5-5-2-2-2-2-5--5--5-5--5--5-5-5-2-|

G-2---2-2-2-4--4-4-4-4-4-2-2-2-2-2--2--2-2--2--2-2-2-2-|

D-4---4-4-4-2--2-2-2-2-2-2-2-2-2-4--4--4-4--4--4-4-4-2-|

A-5-5-5---5----------------------2--2--2-2--2--2-2-2---|

E------------------------------------------------------|

 

Verse 2

Same as verse 1, w/o the End of verse 1

 

Bridge (And all the roads we had to walk....)

 

E---5-----------4h5p4---------------------------------|

B-------3-------------5------------------------------*|

G----------2--------------4-------------2-------2-----|

D------------2-----------------------2------2h4----2--| (X2)

A-5------------------------------2h4-----------------*|

E------------------------------2----------------------|

 

End of Bridge (There are many things that I, would like to say to you...)

 

E----5----------4h5p4------------5-------5-------5--------5------

B--------3------------5------------5-------5-------5--------5----

G-----------2------------4-----------2-------2-------2--------2--

D-------------2--------------------------------------------------

A-5--------------------------------------------------------------

E------------------------------5-------4-------2--------2--------

cont.

E--------2------------2----------------2----------------------|

B-----5-----5-------5-----5---------5-----5-------5-----5-----|

G---2---------2---2----------2----2---------2---2-----2---2---|

D---------------------------------------------------4-------4-|

A---------------2---------------2-------------2---------------|

E-2-----------------------------------------------------------|

 

Chorus (Because maybe..[These chords start on the word "Maybe"])

 

E---------------------------------------------------|

B-5----5--5-5--5-5-5-5-5-5-5-5---5-5--2---2----2-2-*|

G-2----2--2-2--2-2-2-2-2-2-2-2---2-2--2-2-2-2--2-2--|

D-4----4--4-4--4-4-4-4-2-2-2-2---2-2--4-4-4-4--4-4--|

A-5-5--5--5-5----4-4-4---4---4---4-4----4---4--4-4-*|

E----------------2-2-2---5---5---5-5----2---2--2-2--|

 

End of the 1st Chorus

 

E------------------------------------|

B-5-5-5--5--5------------------------|

G-2-2-2--2--2------------------------|

D-2-2-2--2--4------------------------|

A-4---4--4--4------------------------|

E-5---5--5---------------------------|

 

Those are all the parts..

 

If you have any questions, comments, or requests, write to me at GuitDen (I

used to be Kdang21)

 

Return to my to my Oasis tabs page

The Tablature is Copyright its respective owners.

Sign Up For My Newsletter
Subscribe | Unsubscribe

Site Map | Disclaimer | Privacy Policy | Media Kit | Submissions/Corrections

Website © 2000-2014 mattsmusicpage.com. All rights reserved.

Legal & DMCA: Matt's Music Page has been providing lyrics and tabs in a legal way, paying royalties each year to a few organizations. Then, all lyrics and tabs were removed from the site. Now, there's a new owner to the site, which purchased it August 26, 2014, and he is in negotiation to obtain licensing from BMI at the moment. If you have a specific DMCA request -- please do not hesitate to contact me via the contact button on top. I will do my very best to keep this site fully legal.

Get our toolbar!

 

1939 LYRIC THEATRE New York PHOTO
$5.83
1939 LYRIC THEATRE New York PHOTO picture


Star Spangled Banner or Marines Hymn lyrics signed by WWII Charles W. Lindberg
$10.0
Star Spangled Banner or Marines Hymn lyrics signed by WWII Charles W. Lindberg picture


OLD LARGE HISTORIC PHOTO OF THE LYRIC THEATRE, SYDNEY c1930s, WAR BONDS BOOTH
$7.42
OLD LARGE HISTORIC PHOTO OF THE LYRIC THEATRE, SYDNEY c1930s, WAR BONDS BOOTH picture


SONG OF REVOLUTION CARD SET WITH 13 MOST FAVORED COMMUNIST SONGS LYRICS + NOTES
$24.99
SONG OF REVOLUTION CARD SET WITH 13 MOST FAVORED COMMUNIST SONGS LYRICS + NOTES picture


OLD LARGE HISTORIC PHOTO OF THE LYRIC THEATRE, SYDNEY c1930s, WAR LOANS BOOTH
$7.42
OLD LARGE HISTORIC PHOTO OF THE LYRIC THEATRE, SYDNEY c1930s, WAR LOANS BOOTH picture