Your One-Stop Source For
Music Lyrics
Bass and Guitar Tabs
and More...
Music Lyrics Bass and Guitar Tabs

 

The Tabs Are Below

Learn To Read Tab
Chords Handbook
Corrections & Additions
Get Official Tab
Oasis tabs @ 911Tabs

Sad Song

Oasis

 

 

Intro

*************************************************************************

Am slide to 3rd fret x3

d d u u d u u d u

T-------0--0-----0--0-----0--0-----0--0---0--0--0--0--0--3--3--3--0------

A-------1--1-----1--1-----1--1-----1--1---1--1--1--1--1--1--1--1--1------

B-------2--2-----2--2-----0--0-----0--0---2--2--2--2--2--2--2--2--2------

----2--------0-----------2--2-----2--2---2--2--2--2--2--2--2--2--2------

----------------------3--------2---------0--0--0--0--0--0--0--0--0------

------------------------------------------------------------------------

 

*************************************************************************

 

Am C

Sing a sad song in a lonely place,

Dsus2 E G

And try to put a word in for me,

Am C

It's been so long since I found a space,

Dsus2 E G

You'd better put in two or three,

Am C

We as people are just walking round,

Dsus2 E G

Our heads are firmly fixed in the ground,

Am C

What we don't see, well it can't be real,

Dsus2 E G

What we don't touch we cannot feel.

 

Pre Chorus

**************************************************************************

C G

Where we're livin' in this town,

Am C

The sun is coming up and it's going down,

C G D Dsus2 D Dsus4 D Dsus2 D

But it's all just the same at the end of the day,

Am G

And we cheat and we lie,

Am G

Nobody says it's wrong so we don't ask why,

Am G D Dsus2 D Dsus4 D Dsus2 D

'Cos it's all just the same at the end of the day.

**************************************************************************

 

D Fmaj9 C

Are we throwing it all away?

C Fmaj9 C

We're throwing it all away,

C Fmaj9 C E

We're throwing it all away at the end of the day.

 

 

***** Play Intro **************

 

Am C

If you're needing something I can give,

Dsus2 E G

I'll try and help you if I can,

Am C

If you're honest and you say you did,

Dsus2 E G

You know that I would give you my hand,

Am C

Or a sad song in a lonely place,

Dsus2 E G

I'll try and put a word in for you,

Am C

You need a shoulder? Well if that's the case,

Dsus2 E G

There isn't nothing I wouldn't do.

 

**Pre Chorus**

 

D Fmaj9 C

Are we throwing it all away?

C Fmaj9 C

We're throwing it all away,

C Fmaj9 C

We're throwing it all away

 

Play twice

--0--0--0--0--0--0--0--0--0--0--0--0--0--0--0--0--0--0--0--0--0--0--0--

--0--1--1--1--1--0--0--0--1--1--1--0--1--1--1--1--0--0--0--1--1--1--1--

--0--0--0--0--0--0--0--0--0--0--0--2--2--2--2--2--2--2--2--2--2--2--2--

--2--2--2--2--2--2--2--2--2--2--2--3--3--3--3--3--3--3--3--3--3--3--3--

--3--3--3--3--3--3--3--3--3--3--3--0--0--0--0--0--0--0--0--0--0--0--0--

-----------------------------------------------------------------------

 

Fmaj7 Fmaj9 C

Are we throwing it all away?

C Fmaj9 C

We're throwing it all away,

C Fmaj9 C E

We're throwing it all away at the end of the day.

 

Am slide to 3rd fret to end.

 

 

--------------------------------------------------------------------------------

Sad Song

Oasis

 

CHORDS

 

Am - x02210

C - 032010

Esus4 - 022200

E - 022100

G - 320033

C* - 032033

D - xx0232

D* - xx0233

F* - x03210

 

 

[INTRO]

 

E|--0---0-0---0-0-----0-0-0--0---0-0-0----| REPEAT x3

B|--1---1-1---1-1/3---3-3-3--1---1-1-1----|

G|--0---0-0---0-0-----0-0-0--0---0-0-0----|

D|--2---2-2---2-2/4---4-4-4--2---2-0-0----|

A|--3---3-3---3-3/5---5-5-5--3---3-2-2----|

E|--0---0-0---0-0-----0-0-0--0---0-3-3----|

 

 

E|--0------0------0------0-------0-0-0-0-0-0-0-0---|

B|--1------1------1------1-------1-1-1-1-1-1-1-1---|

G|--0----0-0----0-0----0-0----0--2-2-2-2-2-2-2-2---|

D|--2--2---0--0---0--0---0--0----2-2-2-2-2-2-2-2---|

A|--3------3------2------0-------0-0-0-0-0-0-0-0---|

E|--0------0------0------0-------------------------|

 

 

[VERSE]

 

Am C

Sing a sad song in a lonely place,

Esus4 E G

and try to put a word in for me.

Am C

It's been so long since i found a space,

Esus4 E G

you better put in two or three.

 

Am C

We as people are just walking round,

Esus4 E G

our heads are firmly stuck in the ground.

Am C

What we don't see well it can't be real,

Esus4 E G

what we don't touch we cannot feel.

 

 

[CHORUS]

 

G

While we're living,

C*

in this town,

Am E

the sun is coming up and it's going down,

C

but it's all,

G

just the same,

D D* D

at the end of the day.

 

G

Well we cheat,

C*

and we lie.

Am E

Nobody says its wrong so we don`t ask why,

C

cause it's all,

G

just the same,

D D* D

at the end of the day.

 

F* C

throwing it all away,

F* C

throwing it all away,

F* C

throwing it all away,

Esus4 E

at the end of the day.

 

[REPEAT INTRO TAB]

[THE REST OF THE SONG IS THE SAME]

 

 

 

Return to my to my Oasis tabs page

The Tablature is Copyright its respective owners.

Sign Up For My Newsletter
Subscribe | Unsubscribe

Site Map | Disclaimer | Privacy Policy | Media Kit | Submissions/Corrections

Website © 2000-2014 mattsmusicpage.com. All rights reserved.

Legal & DMCA: Matt's Music Page has been providing lyrics and tabs in a legal way, paying royalties each year to a few organizations. Then, all lyrics and tabs were removed from the site. Now, there's a new owner to the site, which purchased it August 26, 2014, and he is in negotiation to obtain licensing from BMI at the moment. If you have a specific DMCA request -- please do not hesitate to contact me via the contact button on top. I will do my very best to keep this site fully legal.

Get our toolbar!

 

® Elvis Presley Figure with Bars & Vinyl Record Stage
$23.99
® Elvis Presley Figure with Bars & Vinyl Record Stage picture


THE LONGINES SYMPHONETTE "SENTIMENTAL JOURNEY" VINTAGE VINYL ALBUM RECORD BOWL
$19.99
 THE LONGINES SYMPHONETTE


African Ghana Medley Vinyl Phono Record Beads (8mm) Ghana
$15.0
African Ghana Medley Vinyl Phono Record Beads (8mm)  Ghana picture


African Yellow Vinyl Phono Record Beads (6mm) Ghana
$12.0
African Yellow Vinyl Phono Record Beads (6mm)  Ghana picture


African Vintage Vinyl Phono Record Beads (7mm - Set of 4) Ghana
$69.0
African Vintage Vinyl Phono Record Beads (7mm - Set of 4)  Ghana picture