Your One-Stop Source For
Music Lyrics
Bass and Guitar Tabs
and More...
Music Lyrics Bass and Guitar Tabs

 

The Tabs Are Below

Learn To Read Tab
Chords Handbook
Corrections & Additions
Get Official Tab
Oasis tabs @ 911Tabs

Roll With It

Oasis

 

 

Chords :

A x02220

Asus4 x02230

Asus2 x02200

C* x3003x

B* x2003x

D xx0232

D7 xx0212

C9 x3233x

F x33211

G 3x0033

 

 

Intro

-----

 

D7 C9 G D7 C9 G D7 C9 G D7 C9 A

 

(The "A" is followed by quickly playing : A Asus2 A Asus4 A Asus2 A)

 

Verse 1

-------

G

You gotta roll with it, you gotta take it slow,

 

you gotta say what you say, don't let anybody get in your way,

C* B* Asus4 G

'coz it's all too much for me to take

G

Don't ever stand aside, don't ever be denied,

 

you wanna be who'd be if you're coming with me

C* B* Asus4

I think I've got a feeling I've lost inside

C* B* Asus4

I think I'm gonna take me away and hide

C* B* D G

I'm thinking of things that I just can't abide

 

Chorus

------

F G

I know the roads down which your life will drive

F G

I found the key that lets you slip inside

F G

kiss the girl she's not behind the door

F

I know I think I recognize your face

C D

but I've never seen you before

 

tab for the end of chorus:

 

but I've never seen you before

e----------0-----------------------------------

B----------1------------------3---3-------3----

G----------0------------------2---2-------2----

D----------2----------------0------------------ p= pull off to sound next

A----------3--------------------3---2p0-2------ note

G----------------------------------------------

 

Verse 2

-------

 

[SAME AS VERSE 1]

 

 

Chorus

------

 

 

Verse again

-----------

The song ends with the lines "I think I've got a feeling I've lost inside"

repeated a bunch of times, accompanied by the chords C* B* and Asus4 and

the song ends with the chords C* B* D G.

 

 

--------------------------------------------------------------------------------

Roll With It

Oasis

 

Intro

D7 C7 G D7 C7 A

---0--0000-0003-3333333----0-0000-0000----------------------

---3--3331-1110-0000000----3-3331-1112------2-0-2-3-2-0-2---

--5--5553-3330-0000000-.--5-5553-3332-----------------------

--4--4442-2220-0000000-.--4-4442-2222----2------------------

---5--5553-3332-2222222----5-5553-3330--0-------------------

--------------3-3333333-------------------------------------

 

Verse ( First Time ) ( Second Time )

G G G G C Em Am G C Em Am C Em

--3333-3333-3333-3333--00-00--0000--3333-3333--00-00--0000-00-00--

--0000-0000-0000-0000--11-00--1111--0000-0000--11-00--1111-11-00--

-0000-0000-0000-0000--00-00--2222--0000-0000--00-00--2222-00-00-.-

-0000-0000-0000-0000--22-22--2222--0000-0000--22-22--2222-22-22-.-

--2222-2222-2222-2222--33-22--0000--2222-2222--33-22--0000-33-22--

--3333-3333-3333-3333--00-00--------3333-3333--00-00-------00-00--

 

Am C Em D G G

--0000-00-00-2222-3333-3333----

--1111-11-00-3333-0000-0000----

--2222-00-00-2222-0000-0000----

--2222-22-22-0000-0000-0000----

--0000-33-22------2222-2222----

-------00-00------3333-3333----

 

Play First Time without Second Time at start of verse ("coz it's all too much

for me to take"are the lyrics)

On the repeat just play Second Time and go straight into next line of tabs (

while "I think I've got a feeling I'm lost inside" is sung)

 

Middle

F F G G F F C D D/C D

-1111-1111-3333-3333------1111-1111-0000-22-00--------2222----

-1111-1111-0000-0000------1111-1111-1111-33-33--------3333----

2222-2222-0000-0000----.-2222-2222-0000-22-00--------2222-----

3333-3333-0000-0000-X3-.-3333-3333-2222-00-22--------0000-----

-----------2222-2222----------------3333----33--2-0-----------

-----------3333-3333------------------------00------3--------- ---------------------------------------------

 

Now Repeat Verse (over solo), middle and verse again then this till the end.

 

--00-00-0000---

--11-00-1111---

.-00-00-2222--.

.-22-22-2222--.

--33-22-0000---

-----00--------

 

 

Return to my to my Oasis tabs page

The Tablature is Copyright its respective owners.

Sign Up For My Newsletter
Subscribe | Unsubscribe

Site Map | Disclaimer | Privacy Policy | Media Kit | Submissions/Corrections

Website © 2000-2014 mattsmusicpage.com. All rights reserved.

Legal & DMCA: Matt's Music Page has been providing lyrics and tabs in a legal way, paying royalties each year to a few organizations. Then, all lyrics and tabs were removed from the site. Now, there's a new owner to the site, which purchased it August 26, 2014, and he is in negotiation to obtain licensing from BMI at the moment. If you have a specific DMCA request -- please do not hesitate to contact me via the contact button on top. I will do my very best to keep this site fully legal.

Get our toolbar!