Your One-Stop Source For
Music Lyrics
Bass and Guitar Tabs
and More...
Music Lyrics Bass and Guitar Tabs

 

The Tabs Are Below

Learn To Read Tab
Chords Handbook
Corrections & Additions
Get Official Tab
Oasis tabs @ 911Tabs

Magic Pie

Oasis

 

 

Chords :

Dm xx0231

D x57775

Am x02210

F x33211

F2 133211

Fmaj7 x33210

G 3x0033

G2 355433

Bb x13331

C x35553

D/F# 2x0232

Em 022000

 

Tab Key:

b = bend (7b8 means bend the string at the 7th fret to make approximately

the note thstring would make if played at the 8th fret with no bend)

r = release bend

h = hammer on

p = pull off

s = slide (a quick slide, sounds like one note)

/ = a slide where you first hear one note, then slide to the next one

~ = hold note

> = slide down an unspecified distance

 

Fill #1: Fill #2: Fill #3:

e---------------------------------------------------------------------------

B---------12--10~~~--------------------------------10s12-10-10s12-10--------

G---10/12------------------------------------------10s12-10-10s12-10--------

D---------------------------------12--10-----------------------------10h12--

A---------------------------10/12-------------------------------------------

E---------------------------------------------------------------------------

 

Fill #4: Fill #5:

E---------------------------------------------------------------------------

B---10s12-10----------------------10----------------------------------------

G---10s12-10-10s12-10-------------12bbb14-----------------------------------

D------------10s12-10-10h12-------------------------------------------------

A---------------------------------------------------------------------------

E---------------------------------------------------------------------------

 

Intro:

-----

 

Dm Am F G Dm Am F G

e-----------------------------------------------------------

B-----------------------------12--10------------------------

G-----------------------10/12-------------------------------

D-----------------------------------------------12--10------

A-----------------------------------------10/12-------------

E-----------------------------------------------------------

 

Dm Am F G Dm Am

e----------------------------------------------------------------------

B---------------------------------------12--10-------------------------

G-------------10b10.5-------------10/12--------------------------------

D-------10h12---------12-----------------------------------12--10------

A-10h12----------------------------------------------10/12----------12-

E----------------------------------------------------------------------

 

F G

e-------------------------------------------------------------------------

B-------------------------------------------------------------------------

G--------------10--12b14--b14r12--10-----(digital feedback)---------------

D--------10h12------------------------------------------------------------

A--10h12------------------------------------------------------------------

E-------------------------------------------------------------------------

 

Verse 1

-------

Dm Am F G (Fill #1)

An extraordinary guy can never have an ordinary day

Dm Am F G (Fill #2)

He might live a long goodbye, but that is not for me to say

Dm Am

I dig his friends, I dig his shoes,

F G Dm Am F G

but he is like a child with nothing to lose but his mind, yeah his mind

 

Dm Am F G

They are sleeping while they dream, and then they wanna be adored

e-----------------------------------------------------------------------------

B-----------------------------------------------------------------------------

G-------10--------------------------------------------------------------------

D-10h12----12-------------------------------------------------------12--10h12-

A---------------------------------------------------------------------12------

E-----------------------------------------------------------------------------

 

Dm Am F G (Fill 3)

They who don't sing what they mean, will live and die by their own sword

Dm Am

I dig their friends, I dig their shoes

F G(fill 4) Dm Am

They are like a child with nothing to lose but their minds,

F G

yeah their minds

e---------------------------------------------------------------------------

B---------------------------------------------------------------------------

G------10-12-12b14r12--10---------------------------------------------------

D-10-12---------------------------------------------------------------------

A---------------------------------------------------------------------------

E---------------------------------------------------------------------------

 

 

Pre-Chorus

----------

Bb F2 C

I'll have my way

e------------------------------------------------------------------

B------------------------------------------------------------------

G----------------(fill1)-(fill 2)----------------------------------

D------------------------------------------------------------------

A------------------------------------------------------------------

E------------------------------------------------------------------

 

Bb F2 C

In my own time

e----------------------------------------------------------------

B----------------------------------------------------------------

G----------------(fill 1)-(fill 2)-------------------------------

D-10h12----------------------------------------------------------

A----------------------------------------------------------------

E----------------------------------------------------------------

 

Bb F2 C

I'll have my say

e-------------------------------------------------------------------

B-------------------------------------------------------------------

G---------------------------(fill 1)-(fill 2)-----------------------

D-10-10h12----------------------------------------------------------

A-------------------------------------------------------------------

E-------------------------------------------------------------------

 

Bb F2 C

My star will shine

e-------------------------------------------------------------------------

B-------------------------------------------------------------------------

G-------------------------------------------------------------------------

D-10----10h12----------------12~~~----------------------------------------

A----12-------------------------------------------------------------------

E-------------------------------------------------------------------------

 

 

Chorus

------

D C G

Cos you see me I've got my magic pie

e---------------------------------------------------------------------------

B---------------------------------------------------------------------------

G---------------------------------------------------------------------------

D-10h12---------------------------------------------------------------------

A---------------------------------------------------------------------------

E---------------------------------------------------------------------------

 

D C G

Think of me, yeah that was me I was that passer by

D/F# Em

I've been and now I've gone

 

Bb F2 C G2

(Fill 5) e----------------------------------------------------------

B----------------------------------------------------------

G-----------------------10--10--10--10--10--10--10--10h12--

D----------------------------------------------------------

A----------------------------------------------------------

E----------------------------------------------------------

 

Verse 2

=======

Dm Am F G

There are but a thousand days preparing for a thousand years

e----------------------------------------------------------------------------

B----------------------------------------------------------------------------

G----------------------------------------------------------------------10----

D----------------------------------------------------------10----10h12----12-

A-------------------------------------------------------12----12-------------

E----------------------------------------------------------------------------

 

Dm Am F G

Many minds to educate and people who have disappeared

e----------------------------------------------------------------------------

B-----------------------------------------------10s12-10---------------------

G-----------------------------------------------10s12-10-------10----10b10.5-

D--------------------------------------------------------10h12----12---------

A----------------------------------------------------------------------------

E----------------------------------------------------------------------------

 

Dm Am

D'you dig my friends? D'you dig my shoes?

F G

I am like a child with nothing to lose but my mind

e---------------------------------------------------------------------------

B------------------------10s12-10-10-12-10----------------------------------

G------------------------10s12-10---------------10b10.5---------------------

D-------------------------------------------12------------------------------

A---------------------------------------------------------------------------

E---------------------------------------------------------------------------

 

Yeah my mind

e---------------------------------------------------------------------------

B---------------------------------------------------------------------------

G--------------------10-----------------------------------------------------

D-------10--12--12-------12--12--12-----------------------------------------

A-10h12---------------------------------------------------------------------

E---------------------------------------------------------------------------

 

Pre-Chorus

==========

Bb F2 C

We'll have our way

e-----------------------------------------------------

B-----------------------------------------------------

G----------------------------10-----------------------

D----10h12-12-12-10h12-12-12----12-12-12-10h12-12-12--

A-----------------------------------------------------

E-----------------------------------------------------

 

Bb F2 C

In our own time

e-----------------------------------------------------

B-----------------------------------------------------

G----------------------------10-----------------------

D----10h12-12-12-10h12-12-12----12-12-12-10h12-12-12--

A-----------------------------------------------------

E-----------------------------------------------------

 

Bb F2 C

We'll have our say

e-----------------------------------------------------

B-----------------------------------------------------

G----12----------------------10-----------------------

D-------12-12-12-10h12-12-12----12-12-12-10h12-12-12--

A-----------------------------------------------------

E-----------------------------------------------------

 

Bb F2 C

My star's gonna shine

e-----------------------------------

B-----------------------------------

G----12----------------------12-----

D-------12-12-12-10h12-12-12----12--

A-----------------------------------

E-----------------------------------

 

[CHORUS same]

 

then:

Bb F2 C G2

(Fill 5)

e-------------------------------------------

B------------3------------------------------

G------------5b6.5--b6.5r5--3-----3b3.5-----

D-----------------------------3h5-------5---

A-------------------------------------------

E-------------------------------------------

 

Bb F2 C G2

(Fill 5)

e---------------------------------------------------------------------------

B------------3--------------------------------------------------------------

G------------5b6.5r5b6.5r5b6.5r5--------------------------------------------

D---------------------------------------------------------------------------

A---------------------------------------------------------------------------

E---------------------------------------------------------------------------

 

Bb F2 C G2

(Fill 5)

e---------------------------------------------------------------------------

B------------3--------------------------------------------------------------

G------------5b6.5--3h4-------3b4--b6.5r5-----------------------------------

D-----------------------5-3h5-----------------------------------------------

A---------------------------------------------------------------------------

E---------------------------------------------------------------------------

 

Bb F2 C G2

(Fill 5)

e-------------------------------------------------------------------

B-------------------------------------------------------------------

G------------3--5/7-5b6.5-5b6.5-5b6.5-5b6.5-5b6.5-5b6.5-5b6.5-5b6.5-

D-------------------------------------------------------------------

A-------------------------------------------------------------------

E-------------------------------------------------------------------

 

e---------------------------------------------------------------------------

B---------------------------------------------------------------------------

G-5b6.5r5--3-------------3--------------------------------------------------

D-------------5--3~~~~-5---5------------------------------------------------

A---------------------------------------------------------------------------

E---------------------------------------------------------------------------

 

SOLO:

----

 

NOTE: There are two different guitar parts being played during the solo

simultaneously, one by a guitar playing only during the "G" chord. This

part goes on for a few minutes with only slight variations of the parts

being played at first, so I haven't written out the whole thing, only the

first few times through it that are only slightly varied later.

 

D C

e-------------------------------------------------

B-------------------------------------------------

guitar G---11-12-11-14-12-11h12-------9-10-9-12-10-9-----

#1 D------------------------12-------------------10--

A-------------------------------------------------

E-------------------------------------------------

 

G

e-------------------------------------------------------------

B-10/12-13-12--15-13-12--------12-13-12--15-13-12h13-12-------

guitar G-----------------------14-12---------------------------14-12-

#1 D-------------------------------------------------------------

A-------------------------------------------------------------

E-------------------------------------------------------------

+ G

e-------------------------------------------------------------

B---------------------------------------8-10b11.5r10-8--------

guitar G---------------------------------7-7h9----------------7--7/5-

#2 D----------------5-7b8.5r7-5--7/9-----------------------------

A---------5--5h7----------------------------------------------

E-3---5/7-----------------------------------------------------

 

D C

e-------------------------------------------------

B-------------------------------------------------

guitar G---11-12-11-14-12-11h12-------9-10-9-12-10-9-----

#1 D------------------------12-------------------10--

A-------------------------------------------------

E-------------------------------------------------

 

G

e-------------------------------------------------------------

B-10/12-13-12--15-13-12--------12-13-12--15-13-12h13-12-------

guitar G-----------------------14-12---------------------------14-12-

#1 D-------------------------------------------------------------

A-------------------------------------------------------------

E-------------------------------------------------------------

+ G

e-------------------------------------------------------------

B---------------------------------------8-10b11.5r10-8---8----

guitar G---------------------------------7-7h9----------------9------

#2 D----------------5-7b8.5r7-5--7/9-----------------------------

A---------5--5h7----------------------------------------------

E-3---5/7-----------------------------------------------------

 

D C

e-------------------------------------------------------------

B-15-13-12-13--15--13---12-13-15-13-12h13----15-13-12-13------

guitar G----------------12--12-------------------12------------------

#1 D-------------------------------------------------------------

A-------------------------------------------------------------

E-------------------------------------------------------------

 

G

e-------------------------------------------------------------

B-15-13-12h13----15-13-12-13--15-13-12h13----15-13-12-13------

guitar G-------------12--------------------------12------------------

#1 D-------------------------------------------------------------

A-------------------------------------------------------------

E-------------------------------------------------------------

+ G

e-------------------------------------------------------------

B---------------------------------------8-10b11.5r10-8-8h10---

guitar G---------------------------------7-7h9-----------------------

#2 D----------------5-7b8.5r7-5--7/9-----------------------------

A---------5--5h7----------------------------------------------

E-3---5/7-----------------------------------------------------

 

IMPROVISE ON THE PARTS PLAYED ABOVE A FEW MORE TIMES, THEN:

 

G D/F# Em Bb F2 C G2

I've been and now I've gone (Fill 5)

e--------------------------------------------15-13----15-13-----------13----

B--------------------------------------------------15-------15--13-15----15-

G---------------------------------------------------------------------------

D---------------------------------------------------------------------------

A---------------------------------------------------------------------------

E---------------------------------------------------------------------------

 

Bb F2 C G2 Bb F2 C G2

(Fill 5) (Fill 5)

e---------15-15-15-13----------13-----------------15-13----------13-15-13-

B---------------------15-13-15----15-15-15-15-15--------15-13-15----------

G-------------------------------------------------------------------------

D-------------------------------------------------------------------------

A-------------------------------------------------------------------------

E-------------------------------------------------------------------------

 

e-------------------------------------------------------------

B-15-13---13-15--13-15--13-15--13h15--------------------------

G-------------------------------------------------------------

D-------------------------------------------------------------

A-------------------------------------------------------------

E-------------------------------------------------------------

 

Then, another guitar plays:

e-------------------------------------------------------------

B-------------------------------------------------------------

G-------------------------------------------------------------

D-------------------------------------------------------------

A-------------------------------------------------------------

E---3--------1---------3----5>---1--------3--------5~~~~/6----

 

Faintly in the background you hear something like this:

e-3-----3---------3----3--------------------------------------

B----3-----3------3-------3-----------------------------------

G-------------0---0----------0--------------------------------

D-------------0---0----------0--------------------------------

A-------------------------------------------------------------

E-------------------------------------------------------------

 

 

 

Return to my to my Oasis tabs page

The Tablature is Copyright its respective owners.

Sign Up For My Newsletter
Subscribe | Unsubscribe

Site Map | Disclaimer | Privacy Policy | Media Kit | Submissions/Corrections

Website © 2000-2014 mattsmusicpage.com. All rights reserved.

Legal & DMCA: Matt's Music Page has been providing lyrics and tabs in a legal way, paying royalties each year to a few organizations. Then, all lyrics and tabs were removed from the site. Now, there's a new owner to the site, which purchased it August 26, 2014, and he is in negotiation to obtain licensing from BMI at the moment. If you have a specific DMCA request -- please do not hesitate to contact me via the contact button on top. I will do my very best to keep this site fully legal.

Get our toolbar!