Your One-Stop Source For
Music Lyrics
Bass and Guitar Tabs
and More...
Music Lyrics Bass and Guitar Tabs

 

The Tabs Are Below

Learn To Read Tab
Chords Handbook
Corrections & Additions
Get Official Tab
Oasis tabs @ 911Tabs

"Don't Look Back in Anger" by Oasis

In this song there are a bunch of solos and fills, I'm going to tab the

ones I can hear.

 

Piano Intro (C,F,C,F, I think)

 

Verse 1:

 

C G Am

Slip inside the eye of your mind,

E F G C Am G

Don't you know you might find a better place to play,

C G Am

You said that you never been,

E F

But all the things that you've seen,

G C Am G

Slowly fade away.

 

Bridge:

 

F Fm C (Fill 1)

So I start a revolution from my bed,

F Fm C (Fill 2)

Cause you said the brains I had went to my head,

F Fm C (Fill 3)

Step outside, summertime's in bloom,

G Abdim

Stand up beside the fireplace, take that look from off your face,

Am G F G

You ain't never gonna burn my heart out. And

 

Chorus:

 

C G Am

So Sally can wait,

E F G C Am G

She knows it's too late as we're walking on by,

C G Am

Her soul slides away,

E F G C G Am E(Solo 1 starts)

But don't look back in anger, I heard you say.

F G C Am G

 

Verse 2:

 

Take me to the place where you go,

Where nobody knows if it's night or day,

(But) please don't put your life in the hands,

Of a rock 'n' roll band who'll throw it all away.

 

Bridge (same)

 

Chorus (same)

 

End of chorus:

C Am G F(Solo 2 starts) Fm C F Fm C F Fm C G Abdim Am G

F G

 

Chorus x2

On second Chorus it's the same until:

 

Am F

But don't look back in anger,

Fm

Don't look back in anger,

C (Solo 3 starts) G Am E F

I heard you say,

Fm C

It's not too late.

 

 

~~Fills and Solos~~

 

Fill 1: Fill 2: Fill 3:

 

E---------------| E------------| E--------8------|

B---------------| B------------| B--------8------|

G---------------| G-----4/5----| G----8/9---\5---|

D-----5---------| D-5h7-----5--| D-10----------5-|

A-5/7---7\5-3---| A----------5-| A---------------|

E---------------| E------------| E---------------|

 

Solo 1:

 

E------------------------------------------------------|

B---------------------------8--------------------------|

G----4-5-7-7b9r7-5---5--5/9----9\7-5-------5h7-----5h7-|

D--7---------------7-------------------5h7-----5h7-----|

A------------------------------------------------------|

E------------------------------------------------------|

 

Solo 2:

 

E----------------------------------------------------------------------

B----------------------------------------------------------------------

G-7b8r7-7b8r7-7br7-5--------5-----5h7b8--5-5-----7-5-7b8r7-7b8r7-7b8r7-

D--------------------5--5h7---5h7------------7-7-----------------------

A----------------------------------------------------------------------

E----------------------------------------------------------------------

cont.

E-----------------------------------------------------------------------8-

B----------------------------------------------------------------8-8-10---

G-5----------------------------------------5--5-7b8r7--5---5-7/9----------

D---5--5h7-5-------5-------------------5-7---------------7----------------

A------------7-5/7---7\5-3-------3-5/7------------------------------------

E----------------------------3-5------------------------------------------

cont.

E-8-8h10-8------8------8------8------8------8-8h10p8------8------8------8-

B----------8h10---8h10---8h10---8h10---8h10----------8h10---8h10---8h10---

G-------------------------------------------------------------------------

D-------------------------------------------------------------------------

A-------------------------------------------------------------------------

E-------------------------------------------------------------------------

cont.

E-8\-0-0-|-----|--------------------------------------------------17----

B-8\-----|17---|----17-17-17------17-17---------------------------------

G--------|19b21|x5--------19b21---------19b21r19-17-19-17--19b21-----19-

D--------|-----|--------------------------------------------------------

A--------|-----|--------------------------------------------------------

E--------|-----|--------------------------------------------------------

cont.

E--------------------------|-----------|--------------------------|

B-------17-------17-17-----|17-17-17---|----17-17-17\\\\----------|

G-19b21----19b21-----19b21-|------19b21|x4------------------------|

D--------------------------|-----------|--------------------------|

A--------------------------|-----------|--------------------------|

E--------------------------|-----------|--------------------------|

 

Solo 3:

 

E-------------------------------------------------------------------|

B-------------------------------------------------------------------|

G---------5-7-7b8r7-5---5--7-5-7b9-7-5--5h7-5-----------------------|

D-----5h7-------------7------------------------7-5----------5-------|

A-5h7-----------------------------------------------3h5-5/7----7\\--|

E-------------------------------------------------------------------|

 

Not the easier songs I usually transcribe...

Questions, comments, requests, write to GuitDen (I used to be KDang21)

 

Return to my to my Oasis tabs page

The Tablature is Copyright its respective owners.

Sign Up For My Newsletter
Subscribe | Unsubscribe

Site Map | Disclaimer | Privacy Policy | Media Kit | Submissions/Corrections

Website © 2000-2014 mattsmusicpage.com. All rights reserved.

Legal & DMCA: Matt's Music Page has been providing lyrics and tabs in a legal way, paying royalties each year to a few organizations. Then, all lyrics and tabs were removed from the site. Now, there's a new owner to the site, which purchased it August 26, 2014, and he is in negotiation to obtain licensing from BMI at the moment. If you have a specific DMCA request -- please do not hesitate to contact me via the contact button on top. I will do my very best to keep this site fully legal.

Get our toolbar!