Your One-Stop Source For
Music Lyrics
Bass and Guitar Tabs
and More...
Music Lyrics Bass and Guitar Tabs

 

The Tabs Are Below

Learn To Read Tab
Chords Handbook
Corrections & Additions
Get Official Tab
Oasis tabs @ 911Tabs

Oasis--"Don't Go Away" from the album "Be Here Now"

Tabbed by: Steve Cunningham (Walrus5150@aol.com)

 

 

 

 

Here's the leads for an outstanding track on Oasis' new record "Be Here Now."

Nothing really fancy hear, and no long solos either. I did the tabs while listening

to the CD, but the chords I did later and are from memory, so they might not be right.

You'll have to listen to the record to get the timing, but I'm pretty sure all the notes

are right. This is the first time I've done the tab for a song, so it might be pretty

messed up, but I hope it turns out allright. Have fun...

 

Comments, corrections, complaints, and whatever else can be sent directly to

my little electronic mailbox at Walrus5150@aol.com, or you can go visit my lame

web page at http://members.aol.com/Walrus5150/index.html

 

 

 

 

Intro:

 

Am G F D

E +--------------------------------------------------------------+

B |--------------------------------------------------------------|

G |----5h7-------7b9b7-5 7 5- -----------------------------------|

D |5h7------------------------7~~~~~~ ---------------7---------|

A |-------------------------------------(5)(5) 5b7b5 0 ----------|

E +--------------------------------------------------------------+

 

 

E +-------------------------------------------------------------+

B |-------------------------------------------------------------|

G |----5h7b9--b9b7 5 7 5 ---------------------------5-----------|

D |5h7-------------------7~~~~~-------------------7---7---------|

A |--------------------------------(5)(5) 5b7b5 0---------------|

E +-------------------------------------------------------------+

 

 

Background fill 1 (with some variations):

 

E +------ -3-----------------------------------------------+

B |0 1 0 --- 1---------------------------------------------|

G |------0----- ------------------------------------------|

D |--------------------------------------------------------|

A |--------------------------------------------------------|

E +--------------------------------------------------------+

 

 

Fill 1:

 

E + ---------------------------------------------------+

B |--------------------------------------------------------|

G |7b9-----9b7-5-------------------------------------------|

D |--------------------------------------------------------|

A |--------------------------------------------------------|

E +--------------------------------------------------------+

 

 

Fill 2:

 

E +--------------------------------------------------------+

B |--------------------------------------------------------|

G |----5-7 5 7b9b7-5-5-------------------------------------|

D |5h7--------------- -7-----------------------------------|

A |--------------------------------------------------------|

E +--------------------------------------------------------+

 

 

Solo:

 

E +-------------------------------8-10 8-------------------+

B |--------------------------8-10--------------------------|

G |----5-7 5 7b9b7-5---5-7\9-------------------------------|

D |5h7---------------7-------------------------------------|

A |--------------------------------------------------------|

E +--------------------------------------------------------+

 

 

E +-----8------8-8h10 8------8------8-8------8h10-8--------+

B |8h10 --8h10------8---8h10 8h10-----8h10---------------|

G |--------------------------------------------------------

 

 

 

Intro:

 

Am

A cold and frosty morning

G

There's not a lot to say

Fmaj7 D

About the things caught in my mind

 

Am

And as the day was dawning,

G

My plane flew away

Fmaj7 Dsus2

With all the things caught in my mind

 

 

Dsus2 Fmaj7

And I wanna be there when you're, coming down

Dsus2 Fmaj7

And I wanna be there when you hit the ground

 

G

So don't go away,

C G/B

Say what you say

Am

Say that you'll stay

G

Forever and a day,

F

In the time of my life

G

Cause I need more time

Am

Yes I need more time

G F

Just to make things right (fill 1)

 

 

Am

Damn my situation,

G

and the games I have to play

Fmaj7 Dsus2

With all the things caught in my mind

 

Am

Damn my education,

G

I can't find the words to say

Fmaj7 Dsus2

With all the things caught in my mind

 

 

Dsus2 Fmaj7

And I wanna be there when you're coming down

Dsus2 Fmaj7

And I wanna be there when you hit the ground

 

 

Repeat chorus

 

Fm C

You and me, what's going on? (fill 2)

F Fm

Always seem to know is how to show,

C

the feelings that are wrong

 

--Solo--

 

 

Repeat chorus yet again

 

 

 

 

Return to my to my Oasis tabs page

The Tablature is Copyright its respective owners.

Sign Up For My Newsletter
Subscribe | Unsubscribe

Site Map | Disclaimer | Privacy Policy | Media Kit | Submissions/Corrections

Website © 2000-2014 mattsmusicpage.com. All rights reserved.

Legal & DMCA: Matt's Music Page has been providing lyrics and tabs in a legal way, paying royalties each year to a few organizations. Then, all lyrics and tabs were removed from the site. Now, there's a new owner to the site, which purchased it August 26, 2014, and he is in negotiation to obtain licensing from BMI at the moment. If you have a specific DMCA request -- please do not hesitate to contact me via the contact button on top. I will do my very best to keep this site fully legal.

Get our toolbar!