Your One-Stop Source For
Music Lyrics
Bass and Guitar Tabs
and More...
Music Lyrics Bass and Guitar Tabs

 

The Tabs Are Below

Learn To Read Tab
Chords Handbook
Corrections & Additions
Get Official Tab
Oasis tabs @ 911Tabs

Cigarettes And Alcohol

Oasis

 

 

[Intro/E Riff]

The Intro and other E chord places is a riff that repeats between E and

Esus4 (002220), I think the rythmn is something like ||S|||S|||S|||S (With

S being the Sus4 chord)

 

Intro-

E/ESus4 F# A

 

Verse 1-

E F# A E

Is it my imagination, or have I finally found something worth looking for,

E F# A E

I was looking for some action, but all I found was Cigarettes and Alcohol,

 

Chorus-

A E A E

You could wait for a lifetime, to spend your days in the sunshine,

A E D

You might as well be a white lie, 'cause when it comes on top, (???? Words)

A E A E

You gotta make it happen, you gotta make it happen, (X2)

 

D A E A E ... to solo

 

Verse 2-

Is it worth the agrivation,

to find yourself a job when there's nothing worth working for,

It's a crazy situation, but all I need are Cigarettes and Alcohol,

 

Chorus-

 

Solo....

 

Ad lib and mess around bit-

E A

You gotta make it

E A

You gotta fake it

(X2)

 

Solo....end.

 

[A couple of riffs I picked out]

 

[Chorus Riff] [Other Riff]

------------------------|---------------------

------------------------|---------------------

-1--2--4--1-------------|-2--2--2--2--0-------

-------------4--2-------|----------------4--2-

------------------------|---------------------

------------------------|---------------------

 

 

 

--------------------------------------------------------------------------------

Cigerettes and Alcohol

Oasis

 

Riff 1

hold bend

---------------------------------------

--9----------10--9--12-----------------

--9--9----9--9---9--11bu13-13-13r-9----

--9--9h11-9--11--9---------------------

---------------------------------------

---------------------------------------

 

Riff 2

hold bend

---------------------------------------

--12-----12-12-12-12-12---0-0-0-0------

--14bu16-16-16-16-16-16---7-X-6-X------

---------------------------------------

---------------------------------------

---------------------------------------

 

 

Return to my to my Oasis tabs page

The Tablature is Copyright its respective owners.

Sign Up For My Newsletter
Subscribe | Unsubscribe

Site Map | Disclaimer | Privacy Policy | Media Kit | Submissions/Corrections

Website © 2000-2014 mattsmusicpage.com. All rights reserved.

Legal & DMCA: Matt's Music Page has been providing lyrics and tabs in a legal way, paying royalties each year to a few organizations. Then, all lyrics and tabs were removed from the site. Now, there's a new owner to the site, which purchased it August 26, 2014, and he is in negotiation to obtain licensing from BMI at the moment. If you have a specific DMCA request -- please do not hesitate to contact me via the contact button on top. I will do my very best to keep this site fully legal.

Get our toolbar!

 

BRAND NEW KEY OF C HOHNER MINI HARMONICA HARP KEYRING KEYCHAIN KEY RING CHAIN
$8.21
BRAND NEW KEY OF C HOHNER MINI HARMONICA HARP KEYRING KEYCHAIN KEY RING CHAIN picture


RISING SONS BAND *2X3 FRIDGE MAGNET* VOCALS GUITAR MANDOLIN DOBRO HARMONICA SONG
$3.99
RISING SONS BAND *2X3 FRIDGE MAGNET* VOCALS GUITAR MANDOLIN DOBRO HARMONICA SONG picture


Vtg Christmas Angel Baby Girl W Harmonica Boy W Book SET OF 2 W GOLD WINGS
$125.0
Vtg Christmas Angel Baby Girl W Harmonica Boy W Book SET OF 2 W GOLD WINGS  picture


Beautiful Hand Carved Jewelry Trinket Jewelry Box Harmonica Case Bone And Brass
$14.5
Beautiful Hand Carved Jewelry Trinket Jewelry Box Harmonica Case Bone And Brass picture


BRAND NEW* HOHNER BOB DYLAN SIGNATURE LIMITED EDITION HARMONICA COLLECTORS ITEM
$140.19
BRAND NEW* HOHNER BOB DYLAN SIGNATURE LIMITED EDITION HARMONICA COLLECTORS ITEM picture