Your One-Stop Source For
Music Lyrics
Bass and Guitar Tabs
and More...
Music Lyrics Bass and Guitar Tabs

 

The Tabs Are Below

Learn To Read Tab
Chords Handbook
Corrections & Additions
Get Official Tab
Oasis tabs @ 911Tabs

Album: Definitely Maybe

 

Not sure if there's bass on this or not. I watched "Live By the Sea" DVD and Noel plays it by himself...so? But I came up with a bass line to match the song if there's not one for it.

 

Standard Tuning (EADG)

 

h=hammer, p=pull off

 

Intro: (hold the note for a bit)

 

D[-------------------]

A[-7------5----7----0]

E[-------------------]

 

Verse/Solo:

 

G[---------------------------------------------0---0--------------------]

D[-----------------------5h7-7-7-7--5h7-7-7-7----5---5--7-7-7-7--5-5-5-5]

A[-5h7-7-7-7--5h7-7-7-7-------------------------------------------------]

E[----------------------------------------------------------------------]

 

 

Chorus:

 

D[--------------|-----------------]

A[-5-5--7h9ph9-0|-7-7-7-7--9-9-9-9]

E[--------------|-----------------]

 

 

That's all. Have a nice day.

 

 

Return to my to my Oasis bass tabs page

The Tablature is Copyright its respective owners.

Sign Up For My Newsletter
Subscribe | Unsubscribe

Site Map | Disclaimer | Privacy Policy | Media Kit | Submissions/Corrections

Website © 2000-2014 mattsmusicpage.com. All rights reserved.

Legal & DMCA: Matt's Music Page has been providing lyrics and tabs in a legal way, paying royalties each year to a few organizations. Then, all lyrics and tabs were removed from the site. Now, there's a new owner to the site, which purchased it August 26, 2014, and he is in negotiation to obtain licensing from BMI at the moment. If you have a specific DMCA request -- please do not hesitate to contact me via the contact button on top. I will do my very best to keep this site fully legal.

Get our toolbar!