Your One-Stop Source For
Music Lyrics
Bass and Guitar Tabs
and More...
Music Lyrics Bass and Guitar Tabs

 

The Tabs Are Below

Learn To Read Tab
Chords Handbook
Corrections & Additions
Get Official Tab
Oasis tabs @ 911Tabs

Wonderful song! This tab is 100% correct!

~ : let the note ring / : slide

 

No bass until 00:39

 

verse 1

G|----------------------------------|--------------------------------|

D|----------------------------------|--------------------------------|

A|-------------2~~~~~~~~~~~~~~~~~~~~|~~~~~~~~~~~/14~~~~~~~~~~~~~~~~~~|

E|----------------------------------|--------------------------------|

«…may your smile……………………………………………………………………shine on…………………………………………»

 

G|----------------------------------|--------------------------------|

D|----------------------------------|--------------------------------|

A|------------/7~~~~~~~~~~~~~~~~~~~~|~~~~~~~~~~~/10~~~~~~~~~~~~~~~~~~|

E|----------------------------------|--------------------------------|

«…don’t be scared………………………………your destiny will keep you warm………………»

 

chorus 1

G|----------------------------------|--------------------------------|

D|----------------------------------|--------------------------------|

A|~~~~~~~~~~~~~~~~~~~~~/5~~~~~~~~~~~|~~~~~~~~~~~~~/12~~~~~~~~~~~~~~~~|

E|----------------------------------|--------------------------------|

«…’cause all of the stars………………………………are fading away……………………»

 

G|----------------------------------|--------------------------------|

D|----------------------------------|--------------------------------|

A|~~~~~~~~~~~~~~~~~~~~~/7~~~~~~~~~~~|~~~~~~~~~~~~~/10~~~~~~~~~~~~~~~~|

E|----------------------------------|--------------------------------|

«………just try not to worry………you’ll see them some day……………………»

 

G|----------------------------------|--------------------------------|

D|----------------------------------|--------------------------------|

A|~~~~~~~~~~~~~~~~~/5~~~~~~~~~~~~~~~|~~~~~~~~~~~~~/7~~~~~~~~~~~~~~~~~|

E|----------------------------------|--------------------------------|

«…take what you need……………………………… and be on your way……and stop……»

 

G|----------------------------------------|

D|-----------------5-5-5-5-5-5-5-5-5-5-5……|

A|~~~~~~~~~~~~~~--------------------------|

E|----------------------------------------|

«…crying your heart out…………»

 

verse 2

G|----------------------------------|--------------------------------|

D|…5-5-5----------------------------|--------------------------------|

A|-------2-2-2-2-2-2-2-2-2-2-2-2-2-2|2-2-2-2-2-2-2-2-2-2-2-2-2-2-2-2-|

E|----------------------------------|--------------------------------|

«…get up…………………………………………………………………………come on……………………………………»

 

G|----------------------------------|--------------------------------|

D|----------------------------------|------------------5-5-5-5-5-5-5…|

A|-2-2-2-2-2-2-7-7-7-7-7-7-7-7-7-7-7|7-7-7-7-7-7-7-7-7---------------|

E|----------------------------------|--------------------------------|

«…why you scared?……………………you’ll never change what’s been and gone…»

 

chorus 2

G|----------------------------------|--------------------------------|

D|…5-5-5-5-5-5-5-5-5-5--------------|--------------7-7-7-7-7-7-7-7-7-|

A|--------------------5-5-5-5-5-5-5-|5-5-5-5-5-5-5-------------------|

E|----------------------------------|--------------------------------|

«…’cause all of the stars………………………………are fading away……………………»

 

 

G|----------------------------------|--------------------------------|

D|-7-7-7-7-7-7-7-7-7-7--------------|---------------5-5-5-5-5-5-5-5-5|

A|---------------------7-7-7-7-7-7-7|-7-7-7-7-7-7-7------------------|

E|----------------------------------|--------------------------------|

«………just try not to worry………you’ll see them some day……………………»

 

G|----------------------------------|--------------------------------|

D|-5-5-5-5-5-5-5-5-5-5-5------------|--------------------------------|

A|-----------------------5-5-5-5-5-5|-5-5-5-5-5-5-5-7-7-7-7-7-7-7-7-7|

E|----------------------------------|--------------------------------|

«…just take what you need…………………………and be on your way……and stop……»

 

G|----------------------------------------|

D|-----------------5-5-5-5-5-5-5-5-5-5-5……|

A|-7-7-7-7-7-7-7-7------------------------|

E|----------------------------------------|

«…crying your heart out…………»

 

bridge 1 (02:22)

G|-------------------------------------------------9-7--------------

D|-----------------7-7-7-7-7-7-7-7---------------------9-7----------

A|-5-5-5-5-5-5-5-5-----------------7-7-7-7-7-7-7-7---------10-9-7-7-

E|------------------------------------------------------------------

«…aaah…aaaah…aaaah………………………………»

 

G|-----------------------------------------------------------------

D|-----------------7-7-7-7-7-7-7-7-----------------5-5-5-5-5-5-5-5-

A|-5-5-5-5-5-5-5-5-----------------7-7-7-7-7-7-7-7-----------------

E|-----------------------------------------------------------------

«…aaah…aaaah…aaaah………………………………»

 

chorus 2 with

G|---9-7---------------| G|--------------------|

D|-------9-7-----------| instead of D|-5-5-5-5-5-5-5-5-5-5|

A|-----------10-9-7-7--| A|--------------------|

E|---------------------| E|--------------------|

«…your heart out……»

 

chorus 2

 

then

G|---------------------------9-7--------------

D|-5-5-5-5-5-5-5-5-5-5-5…………-----9-7----------

A|-----------------------------------10-9-7-7-

E|--------------------------------------------

 

«…stop crying your 03:54

heart out……» x3

 

outro

G|-----------------------------------------------------------------

D|-----------------7-7-7-7-7-7-7-7-----------------5-5-5-5-5-5-5-5-

A|-5-5-5-5-5-5-5-5-----------------7-7-7-7-7-7-7-7-----------------

E|-----------------------------------------------------------------

 

G|-----------------------------------------------------|

D|-----------------7-7-7-7-7-7-7-7-----------------5~~~|

A|-5-5-5-5-5-5-5-5-----------------7-7-7-7-7-7-7-7-----|

E|-----------------------------------------------------|

 

 

Tabbed by skepsis

 

 

Return to my to my Oasis bass tabs page

The Tablature is Copyright its respective owners.

Sign Up For My Newsletter
Subscribe | Unsubscribe

Site Map | Disclaimer | Privacy Policy | Media Kit | Submissions/Corrections

Website © 2000-2014 mattsmusicpage.com. All rights reserved.

Legal & DMCA: Matt's Music Page has been providing lyrics and tabs in a legal way, paying royalties each year to a few organizations. Then, all lyrics and tabs were removed from the site. Now, there's a new owner to the site, which purchased it August 26, 2014, and he is in negotiation to obtain licensing from BMI at the moment. If you have a specific DMCA request -- please do not hesitate to contact me via the contact button on top. I will do my very best to keep this site fully legal.

Get our toolbar!