Your One-Stop Source For
Music Lyrics
Bass and Guitar Tabs
and More...
Music Lyrics Bass and Guitar Tabs

 

The Tabs Are Below

Learn To Read Tab
Chords Handbook
Corrections & Additions
Get Official Tab
Oasis tabs @ 911Tabs

 

FTH80:G D A E ; Generated by Fast Tab, do not erase

====================

 

Artist : Oasis

Song : Some might say

Bass Performance: Paul McGuigan

Tabbed by : Maarten Ivens

Tuning : Standard

Comments : The existing basstabs available were not complete and entirely correct in my opinion.

I've added the guitar chords and the musical interlude for instance.

 

Send Comments, suggestions and improvements to baskoning@hotmail.com

 

Song structure:

Intro

Verse

Pre chorus

Chorus

Musical interlude!!

Solo

Verse

Pre Chorus

Chorus (fade out)

 

====================

Intro + Verse

-------------

 

D Bsus2 G

G -----------------|----------------------|----------------|--------------|------------

D -----------------|----------------------|----------------|--------------|------------

A --5--5--5--5-----|-5--5--5--5--5---5--4-|----------------|--------------|------------

E ------------7--5-|---------------5------|-7--7--7--7---5-|-7--7--7--7--5|--3--3--3---

 

 

>

D A

G ---|---------------|---------------|-------------------|--------------------------

D ---|---------------|---------------|-------------------|--Repeat this 2 times----

A ---|--5--5--5--5---|---------------|-----------------4-|--------------------------

E --3|--------------7|--5--5--5--5--3|--5--5--5--5--7----|--------------------------

 

 

 

Pre-Chorus:

-----------

 

Em G D

"Some might say we will find a brighter day....."

G--------------------|---------------|---------------------|------------------------

D--------------------|---------------|---------------------|------------------------

A--------------------|---------------|-5--5--5--5--5-------|-5--5--5--5-------------

E--0--0--0--0--0--0--|-2--3--3--3--3-|----------------7--5-|------------------------

>

 

Em Cadd9 G

G -------------------|-------------------------|---------------|----------------

D -------------------|-------------------------|---------------|----------------

A -------------------|--3--3--3--3--3--3--3--3-|---------------|----------------

E --0--0--0--0--0--0-|-------------------------|-3--3--3--3--0-|-3--3--3--3--3--

>

 

 

Chorus:

-------

 

D G Em

"Cause i've been standing.........."

G -------------------|---------------------|--------------------------------------

D -------------------|---------------------|----Repeat this 7 times---------------

A --5--5--5----------|---------------------|---------------------------------------

E -----------3--3--3-|-0--0--2--3--3--3--3-|---------------------------------------

 

 

Musical interlude:

------------------

 

F#m F Cadd9

G -------------------------|------------------------|-------------------------------

D -------------------------|------------------------|-------------------------------

A -------------------------|------------------------|--3--3--3--3--3--3--3--3--2----

E --2--2--2--2--2--2--2--2-|-1--1--1--1--1--1--1--1-|-------------------------------

>

 

A

G ------------------------

D ------------------------ After this there's an 8 bar guitar solo over the verse chords

A ------------------------

E --5--5--5--5--5--5--5--5

>

 

 

-----------------------------------------------------------------------------------------------

Some Might Say- Oasis

 

This is a great song. This tab is not necessarily note for note, but it is a basic

outline, and you can create your own stuff. Tabbed by: Mike Crowder

 

Michael_crowder@yahoo.com

 

Intro

 

G-------------------------------------------------

D------------------------5--5--5-5-5-5--5--5-5-5--

A-5--5-5-4-3-2-2-2--2-2---------------------------

E-------------------------------------------------

 

G-------------------------

D-------------------------

A-0--0--0-0-0-0--0--0-0-0-

E------------------------

 

Verse

 

G-------------------------------------------------

D-------------------------------------------------

A-5-5-5-5-5-5-5-5-5-5-5-5-5-5-5-5-2-2-2-2-2-2-2-2-

E-------------------------------------------------

 

G-------------------------------------------------

D---------------5-5-5-5-5-5-5-5-------------------

A-2-2-2-2-2-2-2-----------------5-5-5-5-5-5-5-5-0-

E-------------------------------------------------

 

G-------------------------------

D-------------------------------

A-0-0-0-0-0-0-0-0-0-0-0-0-0-0-0-

E------------------------------- x2

 

Bridge

 

Some might say...we will find...

G----------------------------------------------

D-5-5-5-5-5-5-5-5------------------------------

A-----------------5-5-5-5-5-5-5-0-0-0-0-0-0-0-0

E----------------------------------------------

 

G-----------------

D-----------------

A-0-0-0-0-0-0-0-0-

E----------------- x2

 

Chorus

 

'Cause I've been standing...

G-------------------------------------------------

D-------------------------------------------------

A-5-5-5-5--------------------------3---3-3--------

E----------3-3-3-3-0-0-0-0-3-3-3-3---------3---3-3

 

G-----------------

D-----------------

A-----------------

E-0---0-0-3---3-3- x4

 

 

Return to my to my Oasis bass tabs page

The Tablature is Copyright its respective owners.

Sign Up For My Newsletter
Subscribe | Unsubscribe

Site Map | Disclaimer | Privacy Policy | Media Kit | Submissions/Corrections

Website © 2000-2014 mattsmusicpage.com. All rights reserved.

Get our toolbar!