Your One-Stop Source For
Music Lyrics
Bass and Guitar Tabs
and More...
Music Lyrics Bass and Guitar Tabs

 

The Tabs Are Below

Learn To Read Tab
Chords Handbook
Corrections & Additions
Get Official Tab
Oasis tabs @ 911Tabs

BAND: Oasis

SONG: Rockin Chair

ALBUM: The Masterplan

 

Tuning: E,A,D,G

 

Tabbed by afan@nme.com

 

 

The soft introduction:

G:-------------:-------------:------------:-------------|

D:-------------:-------------:------------:-------------|

A:-3-3-5-5-3---:-3-3-5-5-3---:------------:---------3---|

E:-----------5-:-----------5-:------------:-----------5-|

 

 

Verse:

"I'm Older than i wish to be..." "All my life.."

G:-------------:-------------:-------------:---------:------------|

D:-------------:-------------:-------------:---------:------------|

A:-3--3--3--3--:-2--2--2--2--:-0--0--0--0--:---------:--8---7---5-|

E:-------------:-------------:-------------:-1--1--1-:------------|

 

"I've tried to find another way"

G:--------------:----------|

D:--------------:----------|

A:-5--5-5-5-5-7-:----------|

E:--------------:-1--1-1-1-|

 

"I don't care for your attitude" "All my life.."

G:-------------:-------------:-------------:---------:------------|

D:-------------:-------------:-------------:---------:------------|

A:-3--3--3--3--:-2--2--2--2--:-0--0--0--0--:---------:--8---7---5-|

E:-------------:-------------:-------------:-1--1--1-:------------|

 

"I've tried to make a better day"

G:--------------:----------|

D:--------------:----------|

A:-5--5-5-5-5-7-:----------|

E:--------------:-1--1-1-1-|

 

 

 

Chorus:

"It's hard enough being alone" X2 "Waiting for.." "To come and play"

G:-----------------:-----------------:-----------------:-----------------|

D:-----------------:-----------------:-----------------:-2-2-2-2-2-2-2-2-|

A:-----------------:-0-0-0-0-0-0-0-0-:-----------------:-----------------|

E:-0-0-0-0-0-0-0-0-:-----------------:-1-1-1-1-1-1-1-1-:-----------------|

 

"It's hard enough sitting there" X2 "It's all too.." "When you're not there"

G:-----------------:-----------------:-----------------:-----------------|

D:-----------------:-----------------:-----------------:-2-2-2-2-2-2-2-2-|

A:-----------------:-0-0-0-0-0-0-0-0-:-----------------:-----------------|

E:-0-0-0-0-0-0-0-0-:-----------------:-1-1-1-1-1-1-1-1-:-----------------|

 

 

(guitar solo)

play nothing

 

 

 

Chorus:

"It's hard enough being alone" X2 "Waiting for.." "To come and play"

G:-----------------:-----------------:-----------------:-----------------|

D:-----------------:-----------------:-----------------:-2-2-2-2-2-2-2-2-|

A:-----------------:-0-0-0-0-0-0-0-0-:-----------------:-----------------|

E:-0-0-0-0-0-0-0-0-:-----------------:-1-1-1-1-1-1-1-1-:-----------------|

 

"It's hard enough sitting there" X2 "It's all too.." "When you're not there"

G:-----------------:-----------------:-----------------:-----------------|

D:-----------------:-----------------:-----------------:-2-2-2-2-2-2-2-2-|

A:-----------------:-0-0-0-0-0-0-0-0-:-----------------:-----------------|

E:-0-0-0-0-0-0-0-0-:-----------------:-1-1-1-1-1-1-1-1-:-----------------|

 

 

 

Verse:

"I'm Older than i wish to be..." "All my life.."

G:-------------:-------------:-------------:---------:------------|

D:-------------:-------------:-------------:---------:------------|

A:-3--3--3--3--:-2--2--2--2--:-0--0--0--0--:---------:--8---7---5-|

E:-------------:-------------:-------------:-1--1--1-:------------|

 

"I've tried to find another way"

G:--------------:----------|

D:--------------:----------|

A:-5--5-5-5-5-7-:----------|

E:--------------:-1--1-1-1-|

 

"I don't care for your attitude" "All my life.."

G:-------------:-------------:-------------:---------:------------|

D:-------------:-------------:-------------:---------:------------|

A:-3--3--3--3--:-2--2--2--2--:-0--0--0--0--:---------:--8---7---5-|

E:-------------:-------------:-------------:-1--1--1-:------------|

 

"I've tried to make a better day"

G:--------------:----------|

D:--------------:----------|

A:-5--5-5-5-5-7-:----------|

E:--------------:-1--1-1-1-|

 

 

 

Chorus:

"It's hard enough being alone" X2 "Waiting for.." "To come and play"

G:-----------------:-----------------:-----------------:-----------------|

D:-----------------:-----------------:-----------------:-2-2-2-2-2-2-2-2-|

A:-----------------:-0-0-0-0-0-0-0-0-:-----------------:-----------------|

E:-0-0-0-0-0-0-0-0-:-----------------:-1-1-1-1-1-1-1-1-:-----------------|

 

"It's hard enough sitting there" X2 "It's all too.." "When you're not there"

G:-----------------:-----------------:-----------------:-----------------|

D:-----------------:-----------------:-----------------:-2-2-2-2-2-2-2-2-|

A:-----------------:-0-0-0-0-0-0-0-0-:-----------------:-----------------|

E:-0-0-0-0-0-0-0-0-:-----------------:-1-1-1-1-1-1-1-1-:-----------------|

 

 

 

Outro:

G:-------------:-------------:------------:-------------|

D:-------------:-------------:------------:-------------|

A:-3-3-5-5-3---:-3-3-5-5-3---:------------:---------3---|

E:-----------5-:-----------5-:------------:-----------5-|

 

BY afan@nme.com

 

 

Return to my to my Oasis bass tabs page

The Tablature is Copyright its respective owners.

Sign Up For My Newsletter
Subscribe | Unsubscribe

Site Map | Disclaimer | Privacy Policy | Media Kit | Submissions/Corrections

Website © 2000-2014 mattsmusicpage.com. All rights reserved.

Legal & DMCA: Matt's Music Page has been providing lyrics and tabs in a legal way, paying royalties each year to a few organizations. Then, all lyrics and tabs were removed from the site. Now, there's a new owner to the site, which purchased it August 26, 2014, and he is in negotiation to obtain licensing from BMI at the moment. If you have a specific DMCA request -- please do not hesitate to contact me via the contact button on top. I will do my very best to keep this site fully legal.

Get our toolbar!