Your One-Stop Source For
Music Lyrics
Bass and Guitar Tabs
and More...
Music Lyrics Bass and Guitar Tabs

 

The Tabs Are Below

Learn To Read Tab
Chords Handbook
Corrections & Additions
Get Official Tab
Oasis tabs @ 911Tabs

OASIS - A QUICK PEEP

 

from the album Heathen Chemistry (track 7)

Written by Andy Bell (the bass player)

 

tuned normal -eadg- low to high

BASS TAB by Violent

symbols:

/ = slide up

b = bend

h = hammer on

r = rest

inside () = just addition notes

 

main riff one

-------------------

-------------------

--5--5--5-------3/-

-----------3h5----- play for a while

 

main riff two

-------------------------

--12--12--12---------10h-

--------------10h12------

------------------------- play for a while

 

lead up one

------------------

-------10---------

--5/12----12--10\-

------------------

 

the riff

----------------------------

--12--12--12-11-10----------

-------------------12-11-10-

----------------------------

 

play the riff while going from main riff two to main riff one

----------------------------

--12--12--12-11-10----------

-------------------12-11-10-

----------------------------

variation

---------------------------

--12--12--12-10------------

----------------12-10------

----------------------12-8-

 

during main riff one play lead up one and then back to riff one

------------------

-------10---------

--5/12----12--10\-

------------------

 

play lead up two while going from riff one to riff two

 

during main riff two play riff one

 

the end

----------------------------------

--12--12--12-11-10----------------

-------------------12-11-10-------

----------------------------10----

 

----------------------------------------

--12--10--------------------------------

----------12--10------------------------

------------------12--8-10--7-8-r-10----

variation one

---------------------------------------

--12--10-------------------------------

----------12--10-----------------------

------------------12--7-8--3-5-/-10----

variation two

----------------------------------------

--12--10--------------------------------

----------12--10------------------------

------------------12--0-5b--7-8-/-10----

 

I got fxck else to do so I'm gonna make this tab easier to read

 

so just follow this from here to the end

NOTE: It doesn't matter do you play from C to D with hammer or slide

-------------------------------------------

-------------------------------------------

--5--5--5-------3h5--5--5-------3h5--5--5--

-----------3h5-------------3h5-------------

 

--------------------------------------------------

--------------------------------------------------

-------3h5--5--5-------3h5--5--5-------3h5--5--5--

--3h5-------------3h5-------------3h5-------------

 

--------------------------------------------------

--------------------------------------------------

-------3h5--5--5-------3h5--5--5-------3h5--5--5--

--3h5-------------3h5-------------3h5-------------

0.18

------------------------------------------

---------------------------10h12--12--12--

-------3h5--5--5/12-10h12-----------------

--3h5-------------------------------------

 

----------------------------------------------

---------10h12--12--12---------10h12--12--12--

--10h12-----------------10h12-----------------

----------------------------------------------

 

--------------------------------------------------

---------10h12--12--12-11-10----------12--12--12--

--10h12----------------------12-11-10-------------

--------------------------------------------------

 

----------------------------------------------

---------10h12--12--12---------10h12--12--12--

--10h12-----------------10h12-----------------

----------------------------------------------

 

-----------------------------------------------

---------10h12--12--12-11-10-------------------

--10h12----------------------12-11-10\5--5--5--

-----------------------------------------------

 

---------------------------------------------------------------

----------------------------------------------------10---------

-------3h5--5--5-------3h5--5--5-------3h5--5--5/12----12--10\-

--3h5-------------3h5-------------3h5--------------------------

 

-------------------------------------------

-------------------------------------------

--5--5--5-------3h5--5--5-------3h5--5--5--

-----------3h5-------------3h5-------------

0.48

------------------------------------------

---------------------------10h12--12--12--

-------3h5--5--5/12-10h12-----------------

--3h5-------------------------------------

 

----------------------------------------------

---------10h12--12--12---------10h12--12--12--

--10h12-----------------10h12-----------------

----------------------------------------------

 

--------------------------------------------------

---------10h12--12--12-11-10----------12--12--12--

--10h12----------------------12-11-10-------------

--------------------------------------------------

 

----------------------------------------------

---------10h12--12--12---------10h12--12--12--

--10h12-----------------10h12-----------------

----------------------------------------------

 

-------------------------------------------------------

---------10h12--12--12-11-10---------------------------

--10h12----------------------12-11-10----------(12)----

--------------------------------------10---(r)-(10)----

 

--------------------------------------------

--12--10------------------------------------

----------12--10----------------------------

------------------12--8-10--7-8-r-10--------

 

alright

 

 

 

 

Return to my to my Oasis bass tabs page

The Tablature is Copyright its respective owners.

Sign Up For My Newsletter
Subscribe | Unsubscribe

Site Map | Disclaimer | Privacy Policy | Media Kit | Submissions/Corrections

Website © 2000-2014 mattsmusicpage.com. All rights reserved.

Legal & DMCA: Matt's Music Page has been providing lyrics and tabs in a legal way, paying royalties each year to a few organizations. Then, all lyrics and tabs were removed from the site. Now, there's a new owner to the site, which purchased it August 26, 2014, and he is in negotiation to obtain licensing from BMI at the moment. If you have a specific DMCA request -- please do not hesitate to contact me via the contact button on top. I will do my very best to keep this site fully legal.

Get our toolbar!