Your One-Stop Source For
Music Lyrics
Bass and Guitar Tabs
and More...
Music Lyrics Bass and Guitar Tabs

 

The Tabs Are Below

Learn To Read Tab
Chords Handbook
Corrections & Additions
Get Official Tab
Oasis tabs @ 911Tabs

Oasis

My Big Mouth

(Noel Gallagher)

 

tabbed by Violent (m_saard@hotmail.com)

 

 

Here we go

Inro

G|-----------------| G|----------------------|

D|-----------------| D|----------------------|

A|-0-0-0-0-0-0-0-0-| A|----5-3---------------|

E|-----------------| repeat many times, then E|-5------3--3-3-1--1-1-| x4

 

Verse

 

G|------------------------------------------------------------------

D|------------------------------------------------------------------

A|----5-3-------------------5-3-------------------5-3---------------

E|-5------3--3-3-1--1-1-3-5-----3--3-3-1--1-1-3-5-----3--3-3-1--1-1-

 

G---------------------------------------------------------------------

D---------------------------------------------------------------------

A----5-3-----------------0--5-3-------------------5-3-----------------

E-5------3--3-3-1--1-1-0--------3--3-3-1--1-1-3-5-----3--3-3-1--1-1-1-

 

G---------------------------------------------|

D---------------------------------------------|

A-0--5-3----------------0--5-3----------------|

E--------3--3-3-1--1-1---------3-3-3-3-3--3-3-|

 

 

Pre-Chorus

 

G|-------------------------------------------

D|-------------------------------------------

A|------------------------------5-8--5-------

E|-1-1-0--1--0-1-11-11-3-33-333--------5-3-1-

 

G----------------------------------|

D----------------------------------|

A----------------------------------|

E-1-11-1111-11-111-0-00-003-333-33-|

 

 

Chorus (same as Verse)

Verse

Pre-Chorus

Chorus

Pre-Chorus

Bridge (same as Verse)

Chorus x2

End (same as Verse & Chorus)

 

So, if you have any questions, comments, send me an e-mail

Thank you.

 

 

 

Return to my to my Oasis bass tabs page

The Tablature is Copyright its respective owners.

Sign Up For My Newsletter
Subscribe | Unsubscribe

Site Map | Disclaimer | Privacy Policy | Media Kit | Submissions/Corrections

Website © 2000-2014 mattsmusicpage.com. All rights reserved.

Legal & DMCA: Matt's Music Page has been providing lyrics and tabs in a legal way, paying royalties each year to a few organizations. Then, all lyrics and tabs were removed from the site. Now, there's a new owner to the site, which purchased it August 26, 2014, and he is in negotiation to obtain licensing from BMI at the moment. If you have a specific DMCA request -- please do not hesitate to contact me via the contact button on top. I will do my very best to keep this site fully legal.

Get our toolbar!

 

1939 LYRIC THEATRE New York PHOTO
$5.83
1939 LYRIC THEATRE New York PHOTO picture


Star Spangled Banner or Marines Hymn lyrics signed by WWII Charles W. Lindberg
$10.0
Star Spangled Banner or Marines Hymn lyrics signed by WWII Charles W. Lindberg picture


OLD LARGE HISTORIC PHOTO OF THE LYRIC THEATRE, SYDNEY c1930s, WAR BONDS BOOTH
$7.42
OLD LARGE HISTORIC PHOTO OF THE LYRIC THEATRE, SYDNEY c1930s, WAR BONDS BOOTH picture


SONG OF REVOLUTION CARD SET WITH 13 MOST FAVORED COMMUNIST SONGS LYRICS + NOTES
$24.99
SONG OF REVOLUTION CARD SET WITH 13 MOST FAVORED COMMUNIST SONGS LYRICS + NOTES picture


OLD LARGE HISTORIC PHOTO OF THE LYRIC THEATRE, SYDNEY c1930s, WAR LOANS BOOTH
$7.42
OLD LARGE HISTORIC PHOTO OF THE LYRIC THEATRE, SYDNEY c1930s, WAR LOANS BOOTH picture