Your One-Stop Source For
Music Lyrics
Bass and Guitar Tabs
and More...
Music Lyrics Bass and Guitar Tabs

 

The Tabs Are Below

Learn To Read Tab
Chords Handbook
Corrections & Additions
Get Official Tab
Oasis tabs @ 911Tabs

OASIS

MAGIC PIE

 

 

bass tab by Meelis 'Violent' Saard

the standard tune -EADG- low to high

 

Verse

...but his mind... They are sleeping...

|---------------------| |-------------------------------------------------|

|---------------------| |-------------------------------------------------|

|---------------------| |-5----5----0-5---0--0----------------------------|

|-1--1--1--3--3--3--3-| |---------------1---------1--1--1--1--3--3--3--3--| x4

 

Pre-Chorus

I'll have my way...

|-------------------------------------------------|

|-------------------------------------------------|

|-1--1--1--1--------------------------------------|

|-------------1--1--1--1--3--3--3--3--3--3--3--3--| x4

 

When drums starts to play you can improvise, like this (I was just a kid when I made

this up but this still is kind of funny so I woun't delete it)

|-------------7----5--------|

|-5---3---5-----------7-5---|

|-------------------------8-|

|---------------------------|

 

Chorus

Cos you see...

|-------------------------------------------------

|-------------------------------------------------

|-5--5--5--5--5--5--5--5--3--3--3--3--3--3--3--3--

|-------------------------------------------------

 

-------------------------------------------------------------------------

-------------------------------------------------------------------------

-------------------------------------------------5--5--5--5--5--5--5--5--

-3--3--3--3--3--3--3--3--3--3--3--3--3--3--3--3--------------------------

 

----------------------------------------------------------------------------|

----------------------------------------------------------------------------|

-3--3--3--3--3--3--3--3-----------------------------------1---------3-------|

-------------------------3--3--3--3--2--2--2--2--0-------------1---------3--|

 

If you want to improvise

|-------------7----5----|

|-5---3--------------7--|

|-----------------------|

|-----------------------|

 

Verse 2 (Bonehead plays F and G an octave higher)

There are but...

|------------------------------------------------------------------------------------------------

|------------------------------------------------------------------------3--3--3--3--5--5--5--5--

|-5---5----2-5-----------------------------------5----5----2-5-----------------------------------

|--------------3-5--5----1--1--1--1--3--3--3--3----------------3-5--5----------------------------

 

-------------------------------------------------------------------------------------------------|

-------------------------------------------------------------------------3--3--3--3--5--5--5--5--|

-5----5----2-5-----------------------------------5----5----2-5-----------------------------------|

---------------3-5--5----1--1--1--1--3--3--3--3----------------3-5--5----------------------------|

 

Pre-Chorus

Chorus (end of chorus, Noel sings aaaaa, Bonehead doesn't go up)

|---------------------------------------------------------|

|---------------------------------------------------------|

|---------------------------------------------------------|

|-3--3--3--3--3--3--3--3-/15--15--15--15--15--15--15--15\-|

 

solo

|--------------------------------------------------

|--------------------------------------------------

|-5--5--5--5--5--5--5--5--3--3--3--3--3--3/15--15\-

|--------------------------------------------------

 

----------------------------------------------------

-----------------------------------------------3-5--

-------3--5--------3--5--------------3----3-5-------

-3--3--------3--3-------3--3--5--3-5----5-----------

 

--------------------------------------------------

--------------------------------------------------

-5--5--5--5--5--5--5--5--3--3--3--3--3--3/15--15\-

--------------------------------------------------

 

------------------------------------------------------

----------5--5--5-3-5--3--------3-5--5-5-3------------

-------5-----------------5-3--5-------------5-3-------

-3--3-------------------------------------------5--3--

 

--------------------------------------------------

--------------------------------------------------

-5--5--5--5--5--5--5--5--3--3--3--3--3--3/15--15\-

--------------------------------------------------

 

-------------------------------------------------

-------------------------------------------3--5--

-------3--5--------3--5--------5-----3--5--------

-3--3--------3--3--------3--3-----3--------------

 

--------------------------------------------------

--------------------------------------------------

-5--5--5--5--5--5--5--5--3--3--3--3--3--3/15--15\-

--------------------------------------------------

 

------------------------------------------------------|

---------------------------5--5--5--5-3-5--5-3-5--5-3-|

----------3-5----------3-5----------------------------|

-3--3--5------3--3--5---------------------------------|

 

Chorus You see me I've got my magic pie

|--------------------------------------------------

|--------------------------------------------------

|-5--5--5--5--5--5--5--5--3--3--3--3--3--3/15--15\-

|--------------------------------------------------

 

---------------------------------------------------------

---------------------------------------------------------

-------------5-------------5--------5--3----------5--3---

-3--3--3---5---3--3--3---5---3--3-5------5-3--3-5------5-

 

-------------------------------------------------

-------------------7--------------------5--------

-5--5--5--5--5--5-----5--3--3--3--3--3-----3/15\-

-------------------------------------------------

 

-------------------------------------------------------------------------

-------------------------------------------------------------------------

-------------------------------------------------5--5--5--5--5--5--5--5--

-3--3--3--3--3--3--3--3--3--3--3--3--3--3--3--3--------------------------

 

--------------------------------------------------------------------------

--------------------------------------------------------------------------

-3--3--3--3--3--3/15--15\-------------------------------------------------

--------------------------3--3--3--3--3--3--3--3--3--3--3--3--3--3--3--3--

 

 

-----------------------------------------------------------------------------

-----------------------------------------------------------------------------

-5--5--5--5--5--5--5--5--3--3--3--3--3--3--3/15\-----------------------------

--------------------------------------------------3--3--3--3--2--2--2--2--0--

 

---------------------------

---------------------------

-1-----3-------1-----3-----

----1-----3-------1-----3--

 

---------------------------------------------------------|

------------5-----------------------------7\3----5----7--|

-1-----3---------1-----3---------------------------------|

----1-----3---------1-----3----\1----3-------------------|

 

time: 6.48

|---------------------------------------------------------------------|

|-5h6h7--5x--------7x--5--------------7x--5x--------------------------|

|------------7-5x--------7x--5------0---------7-5x--7x-5-0x--3-2------|

|------------------------------7x--------------------------------0-3x-|

 

Very end (Noel says "Hello") 7.08

|------------ --------------------------------------------------|

|----5-3----- -----5-----5-3---5--3-----5-3------------5-3------|

|---------5-- ---5-----------5--------------5-3------------5----|

|-3---------- -3-----3-3------------3-3----------5-3-3-------3--|

 

 

x = mute

h = hammer on

 

 

 

Return to my to my Oasis bass tabs page

The Tablature is Copyright its respective owners.

Sign Up For My Newsletter
Subscribe | Unsubscribe

Site Map | Disclaimer | Privacy Policy | Media Kit | Submissions/Corrections

Website © 2000-2014 mattsmusicpage.com. All rights reserved.

Legal & DMCA: Matt's Music Page has been providing lyrics and tabs in a legal way, paying royalties each year to a few organizations. Then, all lyrics and tabs were removed from the site. Now, there's a new owner to the site, which purchased it August 26, 2014, and he is in negotiation to obtain licensing from BMI at the moment. If you have a specific DMCA request -- please do not hesitate to contact me via the contact button on top. I will do my very best to keep this site fully legal.

Get our toolbar!

 

VINTAGE SORRENTO MUSIC JEWELRY BOX
$45.0
VINTAGE SORRENTO MUSIC JEWELRY BOX picture


VINTAGE LACQUERED MUSIC BOX JAPAN
$25.99
VINTAGE LACQUERED MUSIC BOX JAPAN picture


Vintage Kehlsteinhaus Bavaria Germany Colorscope Cow Bell View Master Music Box
$8.99
Vintage Kehlsteinhaus Bavaria Germany Colorscope Cow Bell View Master Music Box picture


VINTAGE SCHMIDT Signed Collectible Musical Turning Clown
$9.99
VINTAGE  SCHMIDT Signed Collectible Musical Turning Clown picture


Vintage - Linen - Postcard - Stage - Radio City Music Hall - New York City
$3.75
Vintage - Linen - Postcard - Stage - Radio City Music Hall - New York City   picture