Your One-Stop Source For
Music Lyrics
Bass and Guitar Tabs
and More...
Music Lyrics Bass and Guitar Tabs

 

The Tabs Are Below

Learn To Read Tab
Chords Handbook
Corrections & Additions
Get Official Tab
Oasis tabs @ 911Tabs

Song: Little By Little

Artist: Oasis

Album: Heathen Chemistry

Tuning: standard (E-A-D-G)

Tabber: Bear_[PV] (fuzzisslimshady@hotmail.com)

 

bass not in till pre-chorus

 

PRECHORUS

 

G-------------------------

D-------------------------

A-5--5/9-10-10p9h10-9-7\0-

E-------------------------

 

CHORUS

 

G-------------------------

D-------------------------

A--10-10----------7-9-10--

E-------10-10\5 5---------

 

 

VERSE

 

G-------------------------

D-------------------------

A-7-7-7-0-0-0-------------

E-------------------------

 

FILL 1

 

G-------------------------

D----11-12-14-14----------

A-0-0--0--0--0--0---------

E-------------------------

 

FILL 2

 

G-------------------------

D-10-8--------------------

A------10 8--------8-10-10

E----------10 8 10-------

 

SOLO

 

G--------------------------------------

D--------------------------------------

A-0-0-12-0-0-0-12-0-0-12-0---0---------

E--------------------------3---3-----x2

 

G------------12-14-12----------12-14---

D-0r-0-12-14---------14-12-14--------0r

A---------------------------------------

E---------------------------------------

 

 

Return to my to my Oasis bass tabs page

The Tablature is Copyright its respective owners.

Sign Up For My Newsletter
Subscribe | Unsubscribe

Site Map | Disclaimer | Privacy Policy | Media Kit | Submissions/Corrections

Website © 2000-2014 mattsmusicpage.com. All rights reserved.

Legal & DMCA: Matt's Music Page has been providing lyrics and tabs in a legal way, paying royalties each year to a few organizations. Then, all lyrics and tabs were removed from the site. Now, there's a new owner to the site, which purchased it August 26, 2014, and he is in negotiation to obtain licensing from BMI at the moment. If you have a specific DMCA request -- please do not hesitate to contact me via the contact button on top. I will do my very best to keep this site fully legal.

Get our toolbar!