Your One-Stop Source For
Music Lyrics
Bass and Guitar Tabs
and More...
>Music Lyrics Bass and Guitar Tabs

 

The Tabs Are Below

Learn To Read Tab
Chords Handbook
Corrections & Additions
Get Official Tab
Oasis tabs @ 911Tabs

Oasis - HUNG IN A BAD PLACE

Tabbed by - daniele.rizzitano@fastwebnet.it

 

==INTRO=== ====VERSE==== x2+4

 

G----------------------------- -----------------------------------------------------------

 

D----------------------------- -------------------------------------4-4-2-4-2--------------

 

A----------0-2-0-2-------0-2-- ------------------0-2-2-2-2-------0------------4-2-0-2-------

 

E-0-2-0-2-----------0-2------- 0-2-2-2--0-2-2-2--------------0-2----------------------0-2--

 

can go where I wanna

Be who I wanna be now

I can sleep under water

Never worried what I'm gonna dream now

 

Yeah the times come and gone

And I know where I'm from

And can be so

It's hasta mañana

You're on your own banana skin feet now

 

=====CHORUS=====x3 + =====CHORUS outro====

 

G-------------------- -------------------

 

D-------------------- -4-2----------24---

 

A----------0-2-2-2--- -----4-2-0-2-4-----

 

E-0-2-2-2------------ --------------------

 

Yeah I've been _____ hung in a bad place

Had no _____ sun over my face

Yeah I've been _____ hung in a bad place

For too long

 

I can say what I wanna

Feel how I wanna feel now

I can squeeze all the hours

I choose to devour with ease now

 

I can sing to the trees

Tarzan on harmonies for free yeah

You've been blocked and you're stalling

Nature is calling for me (you got me!)

 

Yeah I've been _____ hung in a bad place

Had no _____ sun over my face

Yeah I've been _____ hung in a bad place

For too long

 

=====CHORUS=====x3 + =====CHORUS outro====

=====CHORUS=====x3

G----------------------------------------------------------------------------

 

D----------------------------------------------------------------------------

 

A----------------------------------------------------------------------------

 

E----------------------------------------------------------------------------

 

Return to my to my Oasis bass tabs page

The Tablature is Copyright its respective owners.

Sign Up For My Newsletter
Subscribe | Unsubscribe

Site Map | Disclaimer | Privacy Policy | Media Kit | Submissions/Corrections

Website © 2000-2014 mattsmusicpage.com. All rights reserved.

Legal & DMCA: Matt's Music Page has been providing lyrics and tabs in a legal way, paying royalties each year to a few organizations. Then, all lyrics and tabs were removed from the site. Now, there's a new owner to the site, which purchased it August 26, 2014, and he is in negotiation to obtain licensing from BMI at the moment. If you have a specific DMCA request -- please do not hesitate to contact me via the contact button on top. I will do my very best to keep this site fully legal.

Get our toolbar!

 

VTG 32" TALL LARGE CENTURION PENDULUM BANJO 35 DAY WALL CLOCK RESTORATION/PARTS
$25.0
VTG 32


Vintage BANJO Miniature With Black Case, Salesman Sample, Only 7 " Long
$9.99
Vintage BANJO Miniature With Black Case, Salesman Sample, Only 7


Vintage Banjo Style Airguide Barometer Thermometer Humidty Faux Wood Plastic
$10.0
Vintage Banjo Style Airguide Barometer Thermometer Humidty Faux Wood Plastic picture


FROG BAND PLAYING BANJO JUG WASHBOARD Painted Resin FIGURINE 8.75 x 4.5 x 6.5
$13.99
 FROG BAND PLAYING BANJO JUG WASHBOARD Painted Resin FIGURINE 8.75 x 4.5 x 6.5 picture


Wm. L. Gilbert American Eagle Crested Banjo Clock 32 Inches
$9.99
Wm. L. Gilbert American Eagle Crested Banjo Clock 32 Inches picture