Your One-Stop Source For
Music Lyrics
Bass and Guitar Tabs
and More...
Music Lyrics Bass and Guitar Tabs

 

The Tabs Are Below

Learn To Read Tab
Chords Handbook
Corrections & Additions
Get Official Tab
Oasis tabs @ 911Tabs

 

Go Let It Out- Oasis

Standing On the Shoulders of Giants

Tabbed on 11 February 2000

 

Bass comes in after first verse and chorus- Listen in the background- Noel says "Click with the bass"

 

Verse

 

G------------------------

D----------------7-5-----

A--------------5-----7-5-

E-5-7-5-5-7--7-----------

 

Sometimes near the end of the song does this:

 

G----------------

D--------------/9

A----------------

E-5-7-5-5-7--7---

 

Chorus

 

Go let it out...

G--------------------------------------------------------

D-----------------3-3-3-3-5-5-5-5----------------7-5-----

A-5-5-5-5-5-5-5-5------------------------------5-----7-5-

E---------------------------------5-7-5-5-7--7-----------

 

G------------------------

D----------------7-5-----

A--------------5-----7-5-

E-5-7-5-5-7--7----------- x2

 

Bridge

 

Is it any wonder...

G---------------------------------

D---------------------------------

A-5-5-5-5-9-9-9-9---------3-3-3-3-

E-----------------5-5-5-5--------- x3

 

We're the builders...

G---------------------------------

D---------------------------------

A-----------------5-5-5-5-5-5-5-5-

E-3-3-3-3-3-3-3-3----------------- x2

 

At the end of the song when this part is played it goes:

 

G---------------------------------

D-5-5-5-5-5-5-5-5-----------------

A-----------------5-5-5-5-5-5-5-5-

E---------------------------------

 

Outro Chorus

 

G---------------------------------

D---------------------------------

A-5-5-5-5-5-5-5-5-3-3-3-3---------

E-------------------------3-3-3-3-

 

 

That's it- pretty easy once you get all of the different parts down. Enjoy. Email at cuntrysadballadman@yahoo.com with corrections or comments.

 

 

Return to my to my Oasis bass tabs page

The Tablature is Copyright its respective owners.

Sign Up For My Newsletter
Subscribe | Unsubscribe

Site Map | Disclaimer | Privacy Policy | Media Kit | Submissions/Corrections

Website © 2000-2014 mattsmusicpage.com. All rights reserved.

Legal & DMCA: Matt's Music Page has been providing lyrics and tabs in a legal way, paying royalties each year to a few organizations. Then, all lyrics and tabs were removed from the site. Now, there's a new owner to the site, which purchased it August 26, 2014, and he is in negotiation to obtain licensing from BMI at the moment. If you have a specific DMCA request -- please do not hesitate to contact me via the contact button on top. I will do my very best to keep this site fully legal.

Get our toolbar!