Your One-Stop Source For
Music Lyrics
Bass and Guitar Tabs
and More...
Music Lyrics Bass and Guitar Tabs

 

The Tabs Are Below

Learn To Read Tab
Chords Handbook
Corrections & Additions
Get Official Tab
Oasis tabs @ 911Tabs

Oasis

Fade In/Out

 

 

Tabbed by Violent (m_saard@hotmail.com)

 

NOTE: figure the exact timing out yourself!

 

lr = let ring

/ = slide up

\ = slide down

p = pull off

h = hammer on

 

Intro

G|----------------|----------------|----------------|----------------|

D|----------------|----------------|----------------|----------------|

A|----------------|----------------|----------------|----------------|

E|-9/10-----------|-9/10-----------|-9/10-----------|-7/8---7---5-7-8|

 

G|----------------|----------------|----------------|----------------|

D|------(9/)10--9-|(11/)12---------|------(9/)10--9-|(11/)12---------|

A|----------------|----------------|----------------|----------------|

E|-/10------------|----------------|-9/10-----------|----------------|

 

G|----------------|----------------|----------------|----------------|

D|------(9/)10--9-|(11/)12---------|------(9/)10--9-|(11/)12---------|

A|----------------|----------------|----------------|----------------|

E|-9/10-----------|----------------|-9/10-----------|----------------|

 

G|----------------|----------------|----------------|----------------|

D|----------------|----------------|----------------|----------------|

A|----------------|----------------|----------------|----------------|

E|-9/10-----------|----------------|-9/10-----------|--5--7/8--10--8-|

 

 

Verse

 

Get on the roller...

G|----------------|----------------|----------------|----------------|

D|------------12--|----------------|----------------|----------------|

A|----10h12p10--10|----------------|-14----15-15~---|/17~------------|

E|9/10~-----------|-5--------------|----------------|----------------|

So get on the helter...

G|----------------|----------------|----------------|----------------|

D|---------12-----|----------------|----------------|----------------|

A|------10-----10-|-------------12-|/14----/15-15~--|/17~------------|

E|-9/10-----------|-5--5-----------|----------------|----------------|

 

Chorus

You fade in-out...

G|----------------|----------------|----------------|----------------|

D|-10/12~-----9/10|-12~lr----------|-10/12~-----9/10|-12~lr----------|

A|--------12------|----------------|--------12------|----------------|

E|----------------|-------10-------|----------------|-------10-------|

 

G|----------------|----------------|----------------|-----------------|

D|-10/12~-----9/10|-12~lr----------|----------------|-----------------|

A|--------12------|----------------|----------------|-----------------|

E|----------------|-------10-------|\1--------------|3-/13-13-13-13-12|

variation

G|----------------|----------------|----------------|----------------|

D|----------------|----------------|----------------|----------------|

A|----------------|----------------|----------------|----------------|

E|-same-----------|-same-----------|-same-----------|3-----1-1---1/--|

 

G|----------------|----------------|----------------|----------------|

D|-----(9/)10~--9-|(11/)12~--------|------(9/)10~-9-|(11/)12~--------|

A|----------------|----------------|----------------|----------------|

E|\10-------------|----------------|-9/10-----------|----------------|

 

Verse

 

Comin' in-out of...

G|----------------|----------------|----------------|----------------|

D|-----------12---|----------------|----------------|--------------12|

A|--10h12p10----10|----------------|14~--14~-15-15--|/17~-10h12p10----10|

E|----------------|-5--5-----------|----------------|----------------|

 

G|----------------|----------------|----------------|----------------|

D|----------------|----------------|----------------|----------------|

A|----------------|-------------12/|14--14-12/15-15~|/17~--17--17~-17|

E|-7/10-----------|-5--5-----------|----------------|----------------|

 

Chorus

She fade in-out

G|----------------|----------------|----------------|----------------|

D|-----------9/10-|-12~lr----------|10/12~-----9/10-|-12~lr----------|

A|15--15~-12------|----------------|--(9/10)12------|----------------|

E|-----------(7/8)|------10-10-----|-----------(7/8)|------10-10-----|

 

G|----------------|----------------|----------------|----------------|

D|10/12~-----9/10-|-12~lr----------|----------------|----------------|

A|--(9/10)12------|----------------|----------------|----------------|

E|-----------(7/8)|------10-10-----|\1--------------|-3-----/5-/7-/8-|

 

G|----------------|----------------|----------------|----------------|

D|------(9/)10~-9-|(11/)12~--------|------(9/)10~-9-|(11/)12~--------|

A|----------------|----------------|----------------|----------------|

E|/10-------------|----------------|-9/10-----------|----------------|

 

G|----------------|----------------|----------------|----------------|

D|------(9/)10~-9-|(11/)12~--------|-------9/)10~-9-|(11/)12~--------|

A|----------------|----------------|----------------|----------------|

E|-9/10-----------|----------------|-9/10-----------|----------------|

 

Aaaaaahh!!

G|---- -------------------

D|---- -------------------

A|---- -3-5-5-3-5--2--/5--

E|10\- ------------------- just play that a while

 

G------------------------------------------------------------------

D------------------------------------------------------------------

A-2/12-12--12-12--12--12--10/12\-2-2--2-2--3--3--2/5-5-3-5--2--/5--

E------------------------------------------------------------------

 

G-------------------------------------

D-------------------------------------

A-3-5-5-3-5--2--/5--3-5-5-3-5--2--/5--

E-------------------------------------

 

G------------------------------------------------------------------

D------------------------------------------------------------------

A-2/12-12--12-12--12--12--10/12\-2-2--2-2--3--3--2/5-5-3-5--2--/5--

E------------------------------------------------------------------

 

Chorus

We fade in-out...

G|----------------|----------------|----------------|----------------|

D|-10~--10~-------|-----12-12-10-12|-10~--10~-------|-----12-12-10-12|

A|----------------|----------------|----------------|----------------|

E|----------5-7-8-|/10-------------|----------5-7-8-|/10-------------|

 

G|----------------|----------------|----------------|----------------|

D|-10~--10~-------|-----12-12-10-12|\---------------|----------------|

A|----------------|----------------|----------------|----------------|

E|----------5-7-8-|/10-------------|-1-1-1-1-1-1-1-1|-3-3-3-3-1-1--1-|

 

this goes a little faster

G|------------------------------------------------------------------------

D|----------10-12--12-10----10--12--10-12-12-10-12--(10)-12-10----10--12--

A|----12-10--------------12------------------------------------12---------

E|-10---------------------------------------------------------------------

 

G-------------------------------------------------------------------

D-10-12-12-10-12--12-10----10--12--10-12-12-10-12--10-9---(10)(12)--

A-----------------------12------------------------------12-15--17---

E-------------------------------------------------------------------

 

Verse

 

So get on the rollercoaster...(I've made this up myself! Ain't Guigsys bass line)

G|---------------------------------------------------------------------------

D|---------------------------------------------------------------------------

A|-15/17-17--17-17--15-17-14-15-17--15\--------------------------------------

E|--------------------------------------5-5--5-5--5--5~---5/7-7--7-7--/8--8-\

Get on the helter skelter...

G--------------------------------------------------------------------------

D-------------12--12-10-12-12--10-----10-12-12-10h12-10h12-10h12--10-9-----

A-10-12-10-10---------------------12-----------------------------------12\-

E--------------------------------------------------------------------------

 

G----------------------------------------------------------------------

D----------------------------------------------------12--12-12-12--12--

A----------------------------------------10-12-10-10(17--17-17-17--17)-

E-5-5--5-5--5--5~---5/7-7--7-7--/8--8-\--------------------------------

 

Chorus

 

You fade in-out...

G|-----------------------------------------------------------------|

D|----------------------------------------9/10-12--10-12-----------|

A|-(15/)17--17-17-17--15-15-15-15\-12-12-----------------10-12-12--|

E|-----------------------------------------------------------------| x7

 

You fade in-out...

G|--------------------------------------------------------------------------|

D|--------------------------------------------------------------------------|

A|--------------------------------------------------------------------------|

E|-1-1-1-1-1-1-1-1-1-1-1-1-3-3-3-3-3-3-3-3-3-3-3-3/15-15-15-15-15-15-15\10--|

 

 

Return to my to my Oasis bass tabs page

The Tablature is Copyright its respective owners.

Sign Up For My Newsletter
Subscribe | Unsubscribe

Site Map | Disclaimer | Privacy Policy | Media Kit | Submissions/Corrections

Website © 2000-2014 mattsmusicpage.com. All rights reserved.

Legal & DMCA: Matt's Music Page has been providing lyrics and tabs in a legal way, paying royalties each year to a few organizations. Then, all lyrics and tabs were removed from the site. Now, there's a new owner to the site, which purchased it August 26, 2014, and he is in negotiation to obtain licensing from BMI at the moment. If you have a specific DMCA request -- please do not hesitate to contact me via the contact button on top. I will do my very best to keep this site fully legal.

Get our toolbar!

 

Starbucks You Are Here Coffee Mug/Cup KENTUCKY - Horses, Banjo, Blue, White
$19.99
Starbucks You Are Here Coffee Mug/Cup KENTUCKY - Horses, Banjo, Blue, White picture


KNOWLES ROCKWELL HERITAGE "THE BANJO PLAYER" FIRST EDITION 1989 PLATE COA
$5.99
KNOWLES ROCKWELL HERITAGE


Vintage Postcard 1981 Disney World Banjo Kings Main Street USA 1981 Postmark
$4.99
 Vintage Postcard 1981 Disney World Banjo Kings Main Street USA 1981 Postmark picture


Banjo Barometer With Thermometer Hygrometer 490mm
$84.76
Banjo Barometer With Thermometer Hygrometer 490mm picture


ANTIQUE JAPANESE NIPPON FIGURINE SET OF 3 WOMEN GEISHA PLAYING DRUM BANJO FAN
$24.0
ANTIQUE JAPANESE NIPPON FIGURINE SET OF 3 WOMEN GEISHA PLAYING DRUM BANJO FAN picture