Your One-Stop Source For
Music Lyrics
Bass and Guitar Tabs
and More...
Music Lyrics Bass and Guitar Tabs

 

The Tabs Are Below

Learn To Read Tab
Chords Handbook
Corrections & Additions
Get Official Tab
Oasis tabs @ 911Tabs

FADE AWAY

Master plan album

 

I think that's it so enjoy this easy and fun song!!! SISAO!!!!!!!!

 

Standard tuning

 

 

VERSE

 

G------------------------------------------------------------------------------------

D------------------------------------------------------------------------------------

A-------4-4-4-4-4-4-4-4-5-5-5-5-5-5-5-5--------------2-2-2-2-2-2-2-2-5-5-5-5-5-5-5-5-

E-5-x8--------------------------------5-5-5-5-5-5-5-5-------------------------------

 

 

 

BRIDGE

 

G------------------------------------------------------------------------------------

D------------------------------------------------------------------------------------

A--------2-2-2-2-2-2-2-2---5-5-5-5-5-5-5-5---2-2-2-2-2-2-2-2---5-5-5-5-5-5-5-5-------E------------------------------------------------------------------------------------

 

 

 

CHORUS

 

G------------------------------------------------------------------------------------D------------------------------------------------------------------------------------A0-0-0-0-0-0-0-0------------------------------------5-5-5-5-5-5-5-5------------------

E----------------0-0-0-0-0-0-0-0----3-3-3-3-3-3-3-3----------------------------------

 

 

 

CHORUS (fin)

 

G------------------------------------------------------------------------------------D------------------------------------------------------------------------------------A--------------------------5-5-5-5-5-5-5-5-------------------------------------------

E-----2-2-2-2-2-2-2-2-----------------------5-5-5-5-5-5-5-5--------------------------

 

 

 

Return to my to my Oasis bass tabs page

The Tablature is Copyright its respective owners.

Sign Up For My Newsletter
Subscribe | Unsubscribe

Site Map | Disclaimer | Privacy Policy | Media Kit | Submissions/Corrections

Website © 2000-2014 mattsmusicpage.com. All rights reserved.

Legal & DMCA: Matt's Music Page has been providing lyrics and tabs in a legal way, paying royalties each year to a few organizations. Then, all lyrics and tabs were removed from the site. Now, there's a new owner to the site, which purchased it August 26, 2014, and he is in negotiation to obtain licensing from BMI at the moment. If you have a specific DMCA request -- please do not hesitate to contact me via the contact button on top. I will do my very best to keep this site fully legal.

Get our toolbar!