Your One-Stop Source For
Music Lyrics
Bass and Guitar Tabs
and More...
Music Lyrics Bass and Guitar Tabs

 

The Tabs Are Below

Learn To Read Tab
Chords Handbook
Corrections & Additions
Get Official Tab
Oasis tabs @ 911Tabs

Oasis

Cast No Shadow

 

 

Tabbed by Violent

standard tuning EADG

 

Symbols:

p = pull off

h = hammer on

/ = slide up

\ = slide down

() = don't have to play

 

Intro

|-12------------------------------------------------------

|---------------------------------------------------------

|-------12----14--12--\------------------12--10-----------

|------------------------3----1-3-1-3------------12--10\--

 

-----------------------------------------------

--------------------------------7--5-----------

--------------------------------------7--5--\--

-5--5----5--5-5----3/5--5--5-------------------

 

------------------------------------|

------------------------------------|

------------------------------------|

-3--3----3--3-3----1/3-3----3--3-3--|

 

 

Verse

Here's a thought...

|-----------------------------------------

|-----------------------------7--5--------

|-----------------------------------7--\--

|-5--5----5--5-5----5--5------------------

 

------------------------------------

------------------------------------

------------------------------------

-3--3----3--3-3----1/3-3----3--3-3--

 

----------------------------------------

----------------------------5--7/12--\--

-------------------------7--------------

-5--5----5--5-5----5--5-----------------

 

--------------------------------------------|

--------------------------------------------|

--------------------------------------------|

-3--3----3--3-3----1/3-3--3----3--3-3--3--3-|

 

Pre - Chorus

Bound with all the weight...

|------9-----------------------------------------|

|------------------------------------------------|

|-7---------5-5-5--5----3----3-------------------|

|---------------------------------3--3--3-(1)-3--| x3

 

As he faced the sun...

|---------------------------------------|

|--------------------7/12----12----10\--|

|------5----3---------------------------|

|-0-------------------------------------|

 

Chorus

As they took his soul...

|----------------------------------------------

|-------------------------------------7/12--\--

|----------------------------------------------

|-3--3----3--3-3----3/5-5--5----5--5-----------

 

--------------------------------------------

--------------------------------------------

-----------------------7--5--7-----5--5h7-5-

-8--8----8--8-8--8--0-----------0-----------

 

------------------------------------------

------------------------------------------

------------------------------------------

-3--3----3--3-3----3/5-5--5----5--5-5--5--

 

--------------------------------------------

-----------------------------------7/12--\--

-----------------------7--5--7--------------

-8--8----8--8-8--8--0-----------0-----------

 

------------------------------------------

------------------------------------------

------------------------------------------

-3--3----3--3-3----3/5-5--5----5--5-5--5--

 

--------------------------------------------

-----------------------------------7/12--\--

-----------------------7--5--7--------------

-8--8----8--8-8--8--0-----------0-----------

 

Musical interlude

--------------------------------------------------------

-----------------------------------7--5-----------------

-7----5----3--------3---3---3---3----------7--5--5h7p5--

--------------------------------------------------------

 

--------------------------------------

---------------------------5h7/12--\--

--------------------------------------

-5--5----5--5-5----5--5---------------

 

--------------------------------------------------------------

--------------------------------------------------------------

--------------------------------------------------------------

-3--3----3--3-3----1/3-3--3----3--3-3----5--5----5--5-5----5--

 

--------------------------------

----(10)-12----12-(14)-12--10\--

-12-----------------------------

--------------------------------

 

-----------------------------------------|

-----------------------------------------|

-----------------------------------------|

-3--3----3--3-3----1/3-3--3----3--3-3----|

 

Verse

 

Pre - Chorus

Bound with all the weight...

|------9-----------------------------------------|

|------------------------------------------------|

|-7---------5-5-5--5----3----3-------------------|

|---------------------------------3--3--3-(1)-3--| x3

 

As he faced the sun...

|------------------------------------------------|

|------------------------------------------------|

|------5----3--------8/12--10--10h12--10---------|

|-0--------------------------------------12--10\-|

 

Chorus/End

|--------------------------------------------

|------------------------------------7/12-\--

|--------------------------------------------

|-3--3----3--3-3--3--3/5-5--5---5--5---------

 

-----------------------------------------------

-----------------------------------------------

------------------------7--5--7-----5h7--5-----

-8--8----8--8-8--8---0-----------0----------7--

 

----------------------------------------------

----------------------------------------------

----------------------------------------------

-3--3----3--3-3--3--3/5-5--5---5--5-5--5---5--

 

----------------------------------------------------

-------------------------------------------------12-

-------------------------7--5--7-----12h10-12/15----

-8--8----8--8-8--8----0-----------0-----------------

 

---------------------------------------------

---------------------------------------------

---------------------------------------------

-3--3----3--3-3--3--3/5-5--5---5--5-5--5---5-

 

-------------------------------------------------

-------------------------------------------------

------------------------7--5--7-----7----7-/-10--

-8--8----8--8-8--8---0-----------0----10---------

 

---------------------------------------------

---------------------------------------------

---------------------------------------------

-3--3----3--3-3--3--3/5-5--5---5--5-5--5---5-

 

--------------------------------------------------

--------------------------------------------------

-------------------------7--5--7-----7\5-7/10-12--

-8--8----8--8-8--8----0-----------0---------------

 

 

Return to my to my Oasis bass tabs page

The Tablature is Copyright its respective owners.

Sign Up For My Newsletter
Subscribe | Unsubscribe

Site Map | Disclaimer | Privacy Policy | Media Kit | Submissions/Corrections

Website © 2000-2014 mattsmusicpage.com. All rights reserved.

Legal & DMCA: Matt's Music Page has been providing lyrics and tabs in a legal way, paying royalties each year to a few organizations. Then, all lyrics and tabs were removed from the site. Now, there's a new owner to the site, which purchased it August 26, 2014, and he is in negotiation to obtain licensing from BMI at the moment. If you have a specific DMCA request -- please do not hesitate to contact me via the contact button on top. I will do my very best to keep this site fully legal.

Get our toolbar!