Your One-Stop Source For
Music Lyrics
Bass and Guitar Tabs
and More...
Music Lyrics Bass and Guitar Tabs

 

The Tabs Are Below

Learn To Read Tab
Chords Handbook
Corrections & Additions
Get Official Tab
No Doubt tabs @ 911Tabs

TOO LATE

 

 

0.00 min

First four chords are:

Gsus4 (335553), G (334553), Abadd#11 (447664) , Ab (445774) repeat once (find out the rythim your self)

then:

 

 

0.11 min

e -----------------|-----------------|-----------------|-----------------|

ab -----------------|-------8-------4-|-----------------|-----------------|

aaag -------1-------7-|-----8-------5---|-5-----4-----4---|-7-----5-----5---|

aaad -----3-------8---|---8-------5-----|---5-----5-----5-|---6-----6-----6-|

aaa ---3-------8-----|-6-------3-------|-----5-----5------|-----6-----6-----|

e -1-------6-------|-----------------|-3------------------|-4---------------|

 

 

Fm Bb Eb Cm Gsus5 G Abadd#11 A

 

 

e -----------------|-----------------|-----------------|-----------------|

b -----------------|-------8-------4-|-----------------|-----------------|

aag -------1-------7-|-----8-------5---|-5-----4-----4---|-7-----5-----5---|

aad -----3-------8---|---8-------5-----|---5-----5-----5-|---6-----6-----6-|

aa ---3-------8-----|-6-------3-------|-----5-----5-----|-----6-----6-----|

e -1-------6-------|-----------------|-3---------------|-4---------------|

 

 

Fm Bb Eb Cm Gsus5 G Abadd#11 A

 

 

0.34 min

e -----------------|-----------------|-----------------|-----------------|

b ---------------4-|-----------------|---------1-------|-------4---------|

ag -------5-----5---|-----------------|-------1---1-----|-----4-----4-----|

ad -----6-----5-----|-----5-------5---|-----3-------3---|-------------5---|

aaa ---6-----3-------|---6---6---6---6-|---3-----------3-|---5-----------5-|

ae -4---------------|-6-------5-------|-1---------------|-3---------------|

 

 

Ab Cm Eb/5 Eb/b5 Fm Gaddb13

I'm not sure about the chord names in 2nd mesure

 

 

0.45 min

e -----------------|-----------------|-----------------|-----------------|

b ---------------4-|-----------------|---------1-------|-------4---------|

g -------5-----5---|-----------------|-------1---1-----|-----4-----------|

d -----6-----5-----|-----5-------5---|-----3-------3---|-----------------|

a ---6-----3-------|---6---6---6---6-|---3-----------3-|---5-------------|

e -4---------------|-6-------5-------|-1---------------|-3---------------|

 

 

Ab Cm Eb/5 Eb/b5 Fm Gaddb13

 

 

0.57 min

e -----------------|-----------------|-----------------|-----------------|

b -------1---------|-------5---------|-------4-----4---|-------1-----1---|

g -----1-------5---|-----5-------0---|-----5---------5-|-----0---------0-|

d ---3-------3-----|---5-------2---2-|---6-------6-----|---2-------2-----|

a -3-------5-----5-|-7-------3-------|-----------------|-3-------3-------|

e -----------------|-----------------|-4-------4-------|-----------------|

 

 

Fm/5 Dm7 C/3 C Ab C

 

 

1.08 min

e -----------------|-----------------|-----------------|-----------------|

b -------1---------|-------5---------|---------4-------|-------6---------|

g -----1-------5---|-----5-------0---|-------5---5---5-|-----6---6-------|

d ---3-------3-----|---5-------2---2-|-----6-------6---|---6-------6---6-|

a -3-------5-----5-|-7-------3-------|---6-------------|-4-----------4---|

e -----------------|-----------------|-4---------------|-----------------|

 

 

Fm/5 Dm7 C/3 C Ab C#

All above is repeated and after that the Gsus4, G, Abadd#11, A part is playd again and then:

 

 

2.50 min This part is playd with distortoion on the guitar.I haven't found outexactly how he plays it but these are the chords that goes over it. : Cm, Bdim,(x3132x),Eb,F,Ab,G I'm not sure about the Bdim but it sounds very cool.

 

 

3.09 min

e -----------------|-----------------|-----------------|-----------------|

b -------1---------|-------5---------|-------4-----4---|-------1-----1---|

g -----1-------5---|-----5-------0---|-----5---------5-|-----0---------0-|

d ---3-------3-----|---5-------2---2-|---6-------6-----|---2-------2-----|

a -3-------5-----5-|-7-------3-------|-----------------|-3-------3-------|

e -----------------|-----------------|-4-------4-------|-----------------|

 

 

Fm/5 Dm7 C/3 C Ab C

e -----------------|-----------------|

b -------1---------|-------5---------|

g -----1-------5---|-----5-------0---|

d ---3-------3-----|---5-------2---2-|

a -3-------5-----5-|-7-------3-------|

e -----------------|-----------------|

 

 

Fm/5 Dm7 C/3 C 3.26 min Ab C# x3

 

 

3.43 min

The "Gsus4, G, Abadd#11, A" is plaid a four times after that comes a Cm (34553x) and that's the end of the song.

 

 

1/6-00 Reykjavík Orri Tómasson

 

 

Return to my to my No Doubt tabs page

The Tablature is Copyright its respective owners.

Sign Up For My Newsletter
Subscribe | Unsubscribe

Site Map | Disclaimer | Privacy Policy | Media Kit | Submissions/Corrections

Website © 2000-2014 mattsmusicpage.com. All rights reserved.

Legal & DMCA: Matt's Music Page has been providing lyrics and tabs in a legal way, paying royalties each year to a few organizations. Then, all lyrics and tabs were removed from the site. Now, there's a new owner to the site, which purchased it August 26, 2014, and he is in negotiation to obtain licensing from BMI at the moment. If you have a specific DMCA request -- please do not hesitate to contact me via the contact button on top. I will do my very best to keep this site fully legal.

Get our toolbar!