Your One-Stop Source For
Music Lyrics
Bass and Guitar Tabs
and More...
Music Lyrics Bass and Guitar Tabs

 

The Tabs Are Below

Learn To Read Tab
Chords Handbook
Corrections & Additions
Get Official Tab
No Doubt tabs @ 911Tabs

SUSPENSION WITHOUT SUSPENSE

This song has 3 types of guitars. There's a fix Acoustic Guitar (take a look at the chords), one FILL and a guitar with distorcion. All three use the same notes. The eletric guitar play only one time each chord. I also put the FILL (you have to do it with a Acoustic Guitar too) of each part, but I think you can get it when you listen the song. Sometimes Tom play the FILLS with a electric guitar with some efects, but it's pretty much the same thing. There's also 2 chord charts: 1 for the acoustic guitar and another one for electric guitar (distortion).

Email me if u have questions.

 

 

ACOUSTIC CHORD CHART:

E Bb G D C

E|--0-----1-----3-----2-----0-----|

B|--0-----3-----3-----3-----1-----|

G|--1-----3-----0-----2-----0-----|

D|--2-----3-----0-----0-----2-----|

A|--2-----1-----2-----x-----3-----|

E|--0-----x-----3-----x-----X-----|

 

 

ELECTRIC CHORD CHART:

E Bb G D C

E|--x-----x-----x-----x-----x-----|

B|--x-----x-----x-----x-----x-----|

G|--9-----x-----x-----7-----2-----|

D|--9-----8-----2-----7-----2-----|

A|--7-----8-----2-----5-----3-----|

E|--x-----6-----3-----x-----X-----|

 

 

INTRO: *Play this FILL 1 8x in the intro

FILL 1

E|---------5-----------|

B|---------------------|

G|-----7-------7------|

D|-7------------------|

A|---------------------|

E|---------------------|

 

 

VERSE 1 *Play the chords with a Acoustic Guitar and acoustic FILL 2

 

 

FILL 2 - Play this FILL 2 2 times

4x 4x 4x 4x

E|-------5------|------5------|------7----|------5-----|

B|---------------|-------------|------------|-------------|

G|----7-----7--|----6----6--|----9----9-|----6----6--|

D|-7------------|-7-----------|-9---------|-7----------|

A|---------------|--------------|-----------|-------------|

E|---------------|-------------|------------|-------------|

 

 

D Bb

My divorce from dependence

E

That's when you found me

Bb

I was still soft

D Bb

And we always were in trouble

E

Odds stacked against us

Bb

And trouble's what we are

 

 

CHORUS *Play the chords with a Acoustic Guitar and acoustic FILL 3

 

 

FILL 3 - Play this FILL 3 4 times

E|-------3-----3-------|------0-----0-------|-------3-----3-----3-----3-----3------3--|

B|----------2-----2----|---------0-----0----|---------3-----3-----3-----3-----3--------|

G|----3-------3-----3--|---0-------0-----0-|---0-------0-----0-----0-----0-----0-----|

D|-0--------------------|---------------------|--------------------------------------------|

A|-----------------------|---------------------|--------------------------------------------|

E|-----------------------|-0------------------|-3------------------------------------------|

 

 

D E G

We get so far

D E G

And then it just starts rewinding

D

And the same old song

E G

We're playing it again

D E G

Suspension without suspense

 

 

VERSE 2 *Play the chords with a Acoustic Guitar, Electric Guitar and acoustic FILL 2

 

 

FILL 2 - Play this FILL 2 2 times

4x 4x 4x 4x

E|-------5------|------5-----|-------7-----|------5------|

B|--------------|-------------|--------------|-------------|

G|----7-----7--|----6----6--|----9-----9-|----6----6--|

D|-7-----------|-7-----------|-9-----------|-7-----------|

A|--------------|--------------|--------------|-------------|

E|--------------|-------------|---------------|-------------|

 

 

D Bb E

Now that I've murdered your inspiration

Bb

And I forced you off

D

Do you hate me?

Bb

Do you want revenge?

E

I want to call you

Bb A G E

But I won't

 

 

CHORUS *Play the chords with a Acoustic Guitar, Electric Guitar and acoustic FILL 3

 

 

FILL 3 - Play this FILL 3 4 times

E|------3------3-------|-----0------0-------|------3-----3-----3-----3-----3------3-|

B|--------2------2-----|--------0------0----|--------3-----3-----3-----3-----3-------|

G|----3------3------3-|---0------0------0--|---0------0-----0-----0-----0-----0----|

D|-0-------------------|----------------------|-------------------------------------------|

A|----------------------|----------------------|-------------------------------------------|

E|----------------------|-0-------------------|-3-----------------------------------------|

 

 

D E G

We get so far

D E G

And then it just starts rewinding

D

And the same old song

E G

We're playing it again

D E G

Suspension without suspense

 

 

VERSE 3 *Play the chords with a Acoustic Guitar, Electric Guitar and acoustic FILL 4

 

 

FILL 4 - Play this FILL 4 4 times

E|-----------0------------|------------0------------|

B|------0-------0------0-|-------1-------1-----1--|

G|---0----0--------0-----|----0---0---------0----|

D|-------------------------|-------------------------|

A|-------------------------|-3-----------------------|

E|-0----------------------|--------------------------|

 

 

E C E

Oh the pessimistic protection plan

C D

Moderation loving

E C E

I've been hardened by the circumstance

C Bb A G

We knew this was coming

 

 

CHORUS *Play the chords with a Acoustic Guitar, Electric Guitar and acoustic FILL 3

 

 

FILL 3 - Play this FILL 3 4 times

E|------3------3-------|-----0------0-------|------3-----3-----3-----3-----3------3-|

B|---------2------2----|--------0------0----|---------3-----3-----3-----3-----3------|

G|----3------3------3-|---0------0-------0-|---0-------0------0-----0-----0-----0--|

D|-0-------------------|----------------------|-------------------------------------------|

A|----------------------|----------------------|-------------------------------------------|

E|----------------------|-0-------------------|-3----------------------------------------|

 

 

D E G

We get so far

D E G

And then it just starts rewinding

D

And the same old song

E G

We're playing it again

D E G

Suspension without suspense

 

 

CHORUS *Play the chords with a Acoustic Guitar, Electric Guitar and acoustic FILL 3

 

 

FILL 3 - Play this FILL 3 6 times

E|-------3------3-------|------0------0------|------3-----3-----3-----3-----3------3-|

B|----------2------2----|---------0------0---|---------3-----3-----3-----3-----3------|

G|----3-------3------3-|---0-------0------0-|---0-------0-----0-----0-----0-----0---|

D|-0--------------------|----------------------|-------------------------------------------|

A|-----------------------|----------------------|------------------------------------------|

E|-----------------------|-0-------------------|-3----------------------------------------|

 

 

D E G

We get so far

D E G

And then it just starts rewinding

D

And the same old song

E G

We're playing it again

D E G

Suspension without suspense

D E G

Intentions without intent

D E G

But I don't want the love we have to end

 

 

Transcribed by JunkieGirl Corrections/additional transcriptions are welcome. Send them to: junkie@gremio.net

 

 

Return to my to my No Doubt tabs page

The Tablature is Copyright its respective owners.

Sign Up For My Newsletter
Subscribe | Unsubscribe

Site Map | Disclaimer | Privacy Policy | Media Kit | Submissions/Corrections

Website © 2000-2014 mattsmusicpage.com. All rights reserved.

Legal & DMCA: Matt's Music Page has been providing lyrics and tabs in a legal way, paying royalties each year to a few organizations. Then, all lyrics and tabs were removed from the site. Now, there's a new owner to the site, which purchased it August 26, 2014, and he is in negotiation to obtain licensing from BMI at the moment. If you have a specific DMCA request -- please do not hesitate to contact me via the contact button on top. I will do my very best to keep this site fully legal.

Get our toolbar!

 

Hard Rock Pin Las Vegas 4th of july red white and blue guitar
$5.0
Hard Rock Pin Las Vegas 4th of july red white and blue guitar picture


Hard Rock Pin Hollywood Fl Bell Girl with dice luggage and guitar
$5.0
Hard Rock Pin Hollywood Fl Bell Girl with dice luggage and guitar picture


Hard Rock Pin Las Vegas King of Clubs Guitar rare only 3 lines of info on back
$5.0
Hard Rock Pin Las Vegas King of Clubs Guitar rare only 3 lines of info on back picture


Hard Rock Pin Edmonton guitar pin
$5.0
Hard Rock Pin Edmonton guitar pin picture


Lladro Guitar Boy #4614 - Beautiful Piece of Lladro
$109.0
Lladro Guitar Boy #4614 - Beautiful Piece of Lladro picture