Your One-Stop Source For
Music Lyrics
Bass and Guitar Tabs
and More...
Music Lyrics Bass and Guitar Tabs

 

The Tabs Are Below

Learn To Read Tab
Chords Handbook
Corrections & Additions
Get Official Tab
No Doubt tabs @ 911Tabs

Spiderwebs

No Doubt

 

 

Verse

E -------------------------------7------------------

B --------------------------------------------------

G ------7-------7-------7---------------------------

D ----8-------8-------8-------8---------------------

A --8-------8-------8-------8-----------------------

E --------------------------------------------------

 

Pre-Chorus

D# E#

But now I'm stuck in

Bb G

In the web you're spinning

D# E#

you got me for your prey (slide it up on the frets..)

 

 

Chorus

Bb

Sorry im not home right now

E#

Walking in the spiderwebs

G D# (do Riff1)

so leave a message and I'll call you back

 

 

Bridge

G D#

now it's gone too deep

 

and the rest is G and D# with echo effects and all that stuff..

but I slipped over some of the end of the bridge... please

email me if u find it.. 10x

 

 

 

riff1

E --------------------------

B --------------------------

G --8-8-7-7-5-5-3-----------

D --8-8-7-7-5-5-3-----------

A --6-6-5-5-3-3-1-----------

E --------------------------

 

 

--------------------------------------------------------------------------------

Spiderwebs

No Doubt

 

Riff 1

e---------------------------

B---------------------------

G---------------------------

D---------------------------

A---6--6--5--5--3--3--1--0--

E---------------------------

 

Riff 2

 

e-----------------------------------

B-----------------------------6~~--- every other time riff 2

G----------------------------------- is played, hit the high F

D------8-------8-------8------------ as an artificial harmonic

A-----------------------------------

E--6-6---6---6---6---6---6--6-------

 

Riff 3

 

e---------------------------------------

B---------------------------------------

G---------------------------------------

D------8-------8-----------------5--8---

A--------------------------5--8---------

E--6-6---6---6---6---6--8---------------

 

 

 

Intro (reggae beat)

 

Bb F Gm Eb | Bb F Gm (riff 1)

vi viii x vi vi viii iii

 

 

Play Riff 2 twice

 

 

Then into VERSE

 

Riff 2 x 3

Riff 3

 

 

PRECHORUS

 

(8th notes)

 

Eb F Bb Gm | Eb F slide f up....

vi viii vi iii vi viii

 

 

CHORUS x 2

 

 

Bb F Gm Riff 1

i i iii

 

 

VERSE

 

Riff 2 x 3

Riff 3

 

PRECHORUS

 

CHORUS x 2

 

CHORUS x 2 - with choppy offbeats

 

BRIDGE

 

Gm Eb

iii vi

 

 

CHORUS x 2

 

CHORUS x 2 - with choppy offbeats

 

CHORUS x 6

(last time play riff 1 really slowly)

(throughout the last choruses, play harmonics along the low frets of

the E strings, a natural flange)

 

OUTRO - with reggae beat of intro

 

Bb F Gm Eb

vi i iii vi

 

TAB FOR CHORDS

 

Bb F Gm Eb Gm Bb F

vi viii x vi iii i i

 

e----6-------------6---3---1---1-----

B----6---10---11---8---3---3---1-----

G----7---10---12---8---3---3---2-----

D----8---10---12---8---5---3---3-----

A----8----8---10---6---5---1---3-----

E----6-----------------3-------1-----

 

 

Lyrics

 

You think that we connect

That the chemisty's correct

Your words walk right through my ears

Presuming I like what I hear

 

And now I'm stuck in the web

You're spinning

You've got me for your prey...

 

Sorry I'm not home right now

I'm walking into spiderwebs

So leave a message

And I'll call you back

A likely story, but leave a message

And I'll call you back

 

You take advantage of what's mine

You're taking up my time

Don't have the courage inside me

To tell you please let me be

 

Communication, telephonic invasion

I'm planning my escape...

 

CHORUS

 

And It's all your fault

I screen my phone calls

No matter who calls

I gotta screen my phone calls

 

Now it's gone too deep

You wake me in my sleep

My dreams become nightmares

'Cause you're ringing in my ears

 

CHORUS

 

 

Return to my to my No Doubt tabs page

The Tablature is Copyright its respective owners.

Sign Up For My Newsletter
Subscribe | Unsubscribe

Site Map | Disclaimer | Privacy Policy | Media Kit | Submissions/Corrections

Website © 2000-2014 mattsmusicpage.com. All rights reserved.

Legal & DMCA: Matt's Music Page has been providing lyrics and tabs in a legal way, paying royalties each year to a few organizations. Then, all lyrics and tabs were removed from the site. Now, there's a new owner to the site, which purchased it August 26, 2014, and he is in negotiation to obtain licensing from BMI at the moment. If you have a specific DMCA request -- please do not hesitate to contact me via the contact button on top. I will do my very best to keep this site fully legal.

Get our toolbar!