Your One-Stop Source For
Music Lyrics
Bass and Guitar Tabs
and More...
Music Lyrics Bass and Guitar Tabs

The Tabs Are Below

Learn To Read Tab
Chords Handbook
Corrections & Additions
Get Official Tab
No Doubt tabs @ 911Tabs

Sometimes

No Doubt

 

 

Rhythm 1

e|-----------------------------------------|-----------------------------------------|

B|---1---1---1---1---1---1---1---1---1---1-|---3---3---3---3---3---3---3---3-------0-|

G|---2---2---2---0---0---2---2---2---2---2-|---2---2---2---2---2---4---4---4-----1---|

D|-------------2---2---2---2-------0---0---|-3---3---------------2---2---------2-----|

A|-0---0-----------------------------------|-------------2---2-----------------------|

E|-----------------------------------------|---------------------------------0-------|

 

e|-----------------------------------------|----------------------------------8-------|

B|---1---1---1---1---1---1---1---1---1---1-|---3---3---3---3------------------5-------|

G|---2---2---2---0---0---2---2---2---2---2-|---2---2---2---2---4---5---5---5--5-------|

D|-------------2---2---2---2-------0---0---|-3---3-------2---6-----7---7---7--7-------|

A|-0---0-----------------------------------|----------------------------------7-------|

E|-----------------------------------------|---------------------5---5--------5-------|

 

Rhythm 2 (listen for timing)

e|-----1-------1---------------------------|--------------------------2---------2-----|

B|---1---1---1---1-----1-----------0-------|-----1---------3----------3-3---------3---|

G|-------------------2---2-------1---1-----|---2---2-----4---4------2-2---2---2-----2-|

D|-3-------3-------2-------2---2-------2---|-3-------3-5-------5--0---0-----4---------|

A|-----------------------------------------|------------------------------------------|

E|-----------------------------------------|------------------------------------------|

 

e|-----1-------1---------------------------|--------------------------3p2-0---0h2-----|

B|---1---1---1---1-----1-----------0-------|-----1---------3----------3---------------|

G|-------------------2---2-------1---1-----|---2---2-----4---4------2-----------------|

D|-3-------3-------2-------2---2-------2---|-3-------3-5-------5--0-------------------|

A|-----------------------------------------|------------------------------------------|

E|-----------------------------------------|------------------------------------------|

 

Rhythm 3 - Chorus

e|-5-5-5-5-5--x-x--------------3--x--3--x--3-/-5---5---5-|

B|-6-6-6-6-6--x-x--5---5--x-x--3--x--3--x--3-/-5---5---5-|

G|-7-7-7-7-7--x-x--5---5--x-x--4--x--4--x--4-/-5---5---5-|

D|-7-7-7-7-7--x-x--5---5--x-x--5--x--5--x--5-/-7---7---7-|

A|-5-5-5-5-5--x-x--3---3--x-x--5--x--5--x--5-/-7---7---7-|

E|-----------------------------3--x--3--x--3-/-5---5---5-|

 

 

Return to my to my No Doubt tabs page

The Tablature is Copyright its respective owners.

Sign Up For My Newsletter
Subscribe | Unsubscribe

Site Map | Disclaimer | Privacy Policy | Media Kit | Submissions/Corrections

Website © 2000-2014 mattsmusicpage.com. All rights reserved.

Get our toolbar!