Your One-Stop Source For
Music Lyrics
Bass and Guitar Tabs
and More...
Music Lyrics Bass and Guitar Tabs

 

The Tabs Are Below

Learn To Read Tab
Chords Handbook
Corrections & Additions
Get Official Tab
No Doubt tabs @ 911Tabs

SNAKES

(T. Kanal / G. Stefani)

Transcribed by Dikran Chekian <D1k0@aol.com>

 

 

revised (5-27-97)

 

This is a fairly simple song when you take out the solos, and all those other things.

 

Intro

 

Em

e -----|-----|

b -----|-----|

g -9-9-|-9-9-| to Riff A

d -9-9-|-9-9-|

a -7-7-|-7-7-|

E -----|-----|

 

Riff A

Em

e ----------------------|-----------|

b ----------------------|-----------|

g -9-9------------------|-9-9-------| x2 to Riff B

d -9-9------------------|-9-9-------|

a -7-7--7h9-10-9h10-9p7-|-7-7-------|

E ----------------------|-----7h8-7-|

 

 

Riff B

A

e -----------------------|

b -10-10-----------------|

g -9--9------------------| x2

d -7--7--7h8-7-----------|

a -------------8-7-------|

E -----------------8-7-5-|

 

Riff C

Em

e -----|-----|

b -----|-----|

g -9-9-|-9-9-| to Riff A (don't go on to Riff B)

d -9-9-|-9-9-|

a -7-7-|-7-7-|

E -----|-----|

 

(verse starts here)

then come here |

v

Em

e -----|-----|

b -----|-----|

g -9-9-|-9-9-| x2

d -9-9-|-9-9-|

a -7-7-|-7-7-|

E -----|-----|

 

A

e -------|-------|

b -10-10-|-10-10-|

g -9--9--|-9--9--|

d -7--7--|-7--7--|

a -------|-------|

E -------|-------|

 

Em

e -----|-----|

b -----|-----|

g -9-9-|-9-9-|

d -9-9-|-9-9-|

a -7-7-|-7-7-|

E -----|-----|

 

On second part of verse play Riff A, Riff B, Riff C

 

Chrous

Bm(fallin) A(underground)

e -------------------|-------------|

b -------------------|-------------|

g --9--9--9--9--9--9-|-5-5-5-5-5-5-|X2

d -11-11-11-11-11-11-|-7-7-7-7-7-7-|

a -11-11-11-11-11-11-|-7-7-7-7-7-7-|

E --9--9--9--9--9--9-|-5-5-5-5-5-5-|

 

 

Dm A Dm

e -------------|-------------|-------------|

b -------------|-------------|-------------|

g -7-7-7-7-7-7-|-4-4-4-4-4-4-|-7-7-7-7-7-7-|

d -7-7-7-7-7-7-|-7-7-7-7-7-7-|-7-7-7-7-7-7-|

a -5-5-5-5-5-5-|-7-7-7-7-7-7-|-5-5-5-5-5-5-|

E -------------|-5-5-5-5-5-5-|-------------|

 

 

e ---------|

b ---------|

g -9-11-11-|

d -9-11-11-|

a -7--9--9-|

E ---------|

 

That's how I think it's played anyways

 

Any suggestions?E~mail me

 

Now you should be able to figure out the rest of the verses

 

------------------------------------------------------------------------------------------------

 

SNAKES

(T. Kanal / G. Stefani)

Transcribed by Marco Gaus <marco.gaus@tu-clausthal.de>

 

 

UPDATED JULY 31, 1997

 

Legend:

 

h: hammer on

p: pull off

b: bend

r: release bend

 

Intro:

 

E|--------------|

B|--------------|

G|--------------|

D|-2-2----2-2---|

A|-2-2----2-2---|

E|-0-0----0-0---|

 

__________________________________________________________

| 2x | 2x |

E|----------------------------------|---------------------|

B|----------------------------------|---------------------|

G|----------------------------------|-2-2-2-3-2-----------|

D|-2-2-2-4-5--4-5-4-2-2-2-----------|-2-2-------3-2-------|

A|-2-2----------------2-2---2-3-2---|-0-0-----------3-2---|

E|-0-0----------------0-0-----------|-------------------3-|

 

 

Now you're falling down...:

 

E|-7----5----7----5----7----5----3----5---|

B|-7----5----7----5----7----5----3----5---|

G|-7----6----7----6----7----6----4----6---|

D|-9----7----9----7----9----7----5----7---|

A|-9----7----9----7----9----7----5----7---|

E|-7----5----7----5----7----5----3----5---|

 

 

Solo:

 

E|-------------------------------|

B|-11b--r8-------7/8/12\8\7/8\7--|

G|-------------------------------|

D|-------------------------------|

A|-------------------------------|

E|-------------------------------|

 

E|------------------------------------------------|

B|------------------------------------------------|

G|-12-12\11\9\8/9\8\5\4\5\8-----8/9--9/11--11/12--|

D|------------------------------------------------|

A|------------------------------------------------|

E|------------------------------------------------|

 

E|-7-5-----7-5---------------------------------------------------|

B|-----8-7-----8-7-8-7h8p7p5-------------------------------------|

G|---------------------------7-5h7-5h7p5\4-5p4-------------------|

D|---------------------------------------------7-5-4h5p4---4-----|

A|-------------------------------------------------------7---5h7-|

E|---------------------------------------------------------------|

 

E|-----------------------------------------------------------------|

B|-------------------------------------------------------4h5/7-/8--|

G|-------------------------4h5p4h5p4---4-----4h5---4h5h7-----------|

D|-4h5p4h5p4---4-----4h5h7-----------7---5h7-----7-----------------|

A|-----------7---5h7-----------------------------------------------|

E|-----------------------------------------------------------------|

 

E|---7-------------------------------------------------------|

B|-8----8-8-8/10-10-10-10-10/12-12-12-12-12-12/15-15-15-15\--|

G|-----------------------------------------------------------|

D|-----------------------------------------------------------|

A|-----------------------------------------------------------|

E|-----------------------------------------------------------|

 

 

Outro:

 

E|-0----2h3p2---------------2-3------|

B|-0---------------------------------|

G|-0---------------------------------|

D|-2---------------------------------|

A|-----------------------------------|

E|-----------------------------------|

 

Return to my to my No Doubt tabs page

The Tablature is Copyright its respective owners.

Sign Up For My Newsletter
Subscribe | Unsubscribe

Site Map | Disclaimer | Privacy Policy | Media Kit | Submissions/Corrections

Website © 2000-2014 mattsmusicpage.com. All rights reserved.

Legal & DMCA: Matt's Music Page has been providing lyrics and tabs in a legal way, paying royalties each year to a few organizations. Then, all lyrics and tabs were removed from the site. Now, there's a new owner to the site, which purchased it August 26, 2014, and he is in negotiation to obtain licensing from BMI at the moment. If you have a specific DMCA request -- please do not hesitate to contact me via the contact button on top. I will do my very best to keep this site fully legal.

Get our toolbar!

 

® Elvis Presley Figure with Bars & Vinyl Record Stage
$23.99
® Elvis Presley Figure with Bars & Vinyl Record Stage picture


THE LONGINES SYMPHONETTE "SENTIMENTAL JOURNEY" VINTAGE VINYL ALBUM RECORD BOWL
$19.99
 THE LONGINES SYMPHONETTE


African Ghana Medley Vinyl Phono Record Beads (8mm) Ghana
$15.0
African Ghana Medley Vinyl Phono Record Beads (8mm)  Ghana picture


African Yellow Vinyl Phono Record Beads (6mm) Ghana
$12.0
African Yellow Vinyl Phono Record Beads (6mm)  Ghana picture


African Vintage Vinyl Phono Record Beads (7mm - Set of 4) Ghana
$69.0
African Vintage Vinyl Phono Record Beads (7mm - Set of 4)  Ghana picture