Your One-Stop Source For
Music Lyrics
Bass and Guitar Tabs
and More...
Music Lyrics Bass and Guitar Tabs

 

The Tabs Are Below

Learn To Read Tab
Chords Handbook
Corrections & Additions
Get Official Tab
No Doubt tabs @ 911Tabs

NEW

CHORD CHART:

A C#m F#m E

E|--5--------4--------2--------0--------|

B|--5--------5--------2--------0--------|

G|--6--------6--------2--------1--------|

D|--7--------6--------4--------2--------|

A|--7--------4--------4--------2--------|

E|--5--------x--------2--------0--------|

 

 

CHORUS (slow version)

A C#m F#m

Don't let it go away

E A

This feeling has got to stay

C#m F#m

Don't let it go away

E A

This feeling has got to stay

C#m F#m E

And I can’t believe I’ve had this chance now

A C#m

Don't let it go away

 

 

VERSE 1

 

 

FILL 1

E|--------------------------------------------|

B|--------------------------------------------|

G|--------------------------------------------|

D|------4----------3---------2----------1---|

A|----------------------0-0-----0--2-2------|

E|-2-2----2--4--4----4---------------------|

*Play this FILL in this part

 

 

New... You're so new You... You're new

And I never had this taste in my past

New You're so new

My normal hesitation is gone

And I really gravitate to your will

Are you here to fetch me out?

‘Cause I never had this taste in my mouth

 

 

BRIDGE

D E F# D E F# D E F# G# A B# C C#

E|----------------|-------------|---------------------------------------------|

B|--7---9---11--|7---9------|-7---9---11---13---14---16---17---18-|

G|--7---9---11--|7---9------|-7---9---11---13---14---16---17---18-|

D|--7---9---11--|7---9---4--|-7---9---11---13---14---16---17---18-|

A|-- 5---7---9---|5---7---4--|-5---7--- 9----11---12---14---15---16-|

E|-----------------|---------2--|---------------------------------------------|

 

 

D E F#

Oh you're not old

D E F#

And you're not familiar

D E F#

Recently discovered

G# A B# C C#

And I'm learning about you

 

 

VERSE 2

 

 

FILL 1

E|------------------------------------------------|

B|------------------------------------------------|

G|------------------------------------------------|

D|------4----------3----------2----------1------|

A|------------------------0-0-----0--2-2--------|

E|-2-2----2--4--4----4-------------------------|

 

 

New... You're so new You...

You're new

And you’re consuming me violently

And you’re reverence shamelessly tempting me

Who sent this maniac

‘Cause I never had this taste in my past

 

 

BRIDGE

D E F#

Oh you're different

D E F#²

You're different from the former

D E F# G#

Like a fresh battery

A B# C C#

I’m energized by you

 

 

CHORUS

 

 

A C#m F#m

Don't let it go away

E A

This feeling has got to stay

C#m F#m

Don't let it go away

E A

This feeling has got to stay

C#m F#m E

And I can't believe I've had this chance now

A C#m

Don't let it go away

*Fill 1 (just one time)

 

 

BRIDGE

FILL 2

E|-------------------------------------------|

B|-------------------------------------------|

G|------2--------2--------2--------2------|

D|----4---4----4---4----4---4----4---4--|

A|--5--------4--------3--------4-----------|

E|-------------------------------------------|

 

 

E|-------------------------------------------|

B|-------------------------------------------|

G|------2--------2--------2--------2------|

D|----4---4----4---4----4---4----4---4--|

A|--5--------4--------3--------3-----------|

E|-------------------------------------------|

 

 

*On this part, play this same

FILL 2

 

 

Why am I so curious

This territory is dangerous

I'll probably end up at the start

I'll be back in line with my broken heart

 

 

VERSE 3

 

 

FILL 1

New Is so new You You're new

And I've never had this taste in my past

 

 

CHORUS

 

 

A C#m F#m

Don't let it go away

E A

This feeling has got to stay

C#m F#m

Don't let it go away

E A

This feeling has got to stay

C#m F#m E

And I can't believe I've had this chance now

A C#m F#m E

Don't let it go away

A C#m

And I can't believe it

F#m E

Can't believe it

A C#m

Can't believe it

F#m E

Can't believe it

A C#m F#m

Don't let it go away

E A

This feeling has got to stay

C#m F#m

Don't let it go away

 

 

New... You're so new...

 

 

Transcribed by JunkieGirl Corrections/additional transcriptions are welcome. Send them to: junkie@gremio.net

 

 

Return to my to my No Doubt tabs page

The Tablature is Copyright its respective owners.

Sign Up For My Newsletter
Subscribe | Unsubscribe

Site Map | Disclaimer | Privacy Policy | Media Kit | Submissions/Corrections

Website © 2000-2014 mattsmusicpage.com. All rights reserved.

Legal & DMCA: Matt's Music Page has been providing lyrics and tabs in a legal way, paying royalties each year to a few organizations. Then, all lyrics and tabs were removed from the site. Now, there's a new owner to the site, which purchased it August 26, 2014, and he is in negotiation to obtain licensing from BMI at the moment. If you have a specific DMCA request -- please do not hesitate to contact me via the contact button on top. I will do my very best to keep this site fully legal.

Get our toolbar!