Your One-Stop Source For
Music Lyrics
Bass and Guitar Tabs
and More...
Music Lyrics Bass and Guitar Tabs

 

The Tabs Are Below

Learn To Read Tab
Chords Handbook
Corrections & Additions
Get Official Tab
No Doubt tabs @ 911Tabs

MOVE ON

Guitar tablature transcribed by Marco Gaus: marco.gaus@tu-clausthal.de

 

 

Legend:

 

h: hammer on

 

p: pull off

 

b: bend

 

r: release bend

 

 

 

Intro:

E|-----------------------------------------------------|

B|-----------------------------------------------------|

G|------------------5-6-5----------------------5-6-----|

D|----8--7--------7-------7------8--7--------7---------|

A|-5--------5--8--------------5--------5--8------------|

E|-----------------------------------------------------|

 

 

E|-----------------------------------------------------|

B|-----------------------------------------------------|

G|------------------5-6-5------------------------------|

D|----8--7--------7-------7------8--7------------------|

A|-5--------5--8--------------5--------5--8----8-7-----|

E|-----------------------------------------------------|

 

 

/: rapidly pick string and slide up:

E|-------------------------------|

B|-0/////////////////////15b-----|

G|-------------------------------|

D|-------------------------------|

A|-------------------------------|

E|-------------------------------|

 

 

E|---------------------------------------------------|

B|---------------------------------------------------|

G|---------------------------------------------------|

D|-7---7-7-7-7----7--7--7---10--10101010---10-10-10--|

A|-5---5-5-5-5----5--5--5---8---8-8-8-8----8--8--8---|

E|---------------------------------------------------|

 

 

E|---------------------------------|

B|---------------------------------|

G|----------7---7-----------7---7--|

D|--8---7---7---7---8---7---7---7--|

A|--8---7---5---5---8---7---5---5--|

E|--6---5-----------6---5----------|

 

 

Verse(2x):

E|----10------------10---10---------------10-----------|

B|-7---7---10---10---7---7---10---10---7---7--10---10--|

G|-7---7---10---10---7---7---10---10---7---7--10---10--|

D|-7-------10---10-----------10---10---7------10---10--|

A|-----------------------------------------------------|

E|-----------------------------------------------------|

 

 

E|--6--6--5--5--5--5--5--5---6--6--5--5-----|

B|--6--6--5--5--6--6--6--6---6--6--5--5--6--|

G|--7--7--6--6--7--7--7--7---7--7--6--6--7--|

D|---------------------------------------7--|

A|------------------------------------------|

E|------------------------------------------|

 

 

You have to understand...:

_________________________________________________________________

| 2x | 2x |

E|--3--3--1--1--3--3-------------|--8--8--6--6--8--8-------------|

B|--3--3--1--1--3--3--4----3-----|--8--8--6--6--8--8--9---8------|

G|--4--4--2--2--4--4--3----2-----|--9--9--7--7--9--9--8---7------|

D|--------------------5----4-----|--------------------10--9------|

A|-------------------------------|-------------------------------|

E|-------------------------------|-------------------------------|

| | |

 

 

E|-------------------------------|-------------------------------|

B|-------------------------------|-------------------------------|

G|-------------------------------|-------------------------------|

D|-------------------------------|---------5---6-5---------6--5--|

A|---------5---6-5---------6--5--|-3---5-6---------3---5-6-------|

E|-3---5-6---------3---5-6-------|-------------------------------|

 

 

E|------------------4--|

B|--3---4---3---4---4--|

G|--5---6---5---6---5--|

D|--4---5---4---5---6--|

A|---------------------|

E|---------------------|

 

 

Bridge to guitar solo:

E|-----------------------|

B|-----------------------|

G|-------------6----/9---|

D|-------5-------5-----8-|

A|-4-------4-------------|

E|---3-------------------|

 

 

Solo:

E|--------------------------------------------------------|

B|-/15--------14-15----14-11h14p11-10-11-10---10h11p10----|

G|------------------15---------------------------------12-|

D|--------------------------------------------------------|

A|--------------------------------------------------------|

E|--------------------------------------------------------|

 

 

E|-10-11-10h11p10p8-10-------------------------------|

B|------------------------11p10-11p10p8-10-9b--------|

G|---------------------------------------------------|

D|---------------------------------------------------|

A|---------------------------------------------------|

E|---------------------------------------------------|

E|-----------------------------------------------------|

B|-8---8/10---8h10p8-7--8--7---------------------------|

G|----------------------------8--7--8--7---------------|

D|-----------------------------------------------------|

A|-----------------------------------------------------|

E|-----------------------------------------------------|

 

 

E|------------------------------------------|

B|----------------------------8-10--11--10--|

G|----------7--------7-7-9-10---------------|

D|---7-8-10---7-8-10------------------------|

A|------------------------------------------|

E|------------------------------------------|

E|------------------------------------------------------|

B|-/14-11h14p11----15-11h14p11--10--11--10-----10h11----|

G|--------------14-----------------------------------12-|

D|------------------------------------------------------|

A|------------------------------------------------------|

E|------------------------------------------------------|

 

 

E|-10h11p10p8-----------------------------------|

B|------------11-10h11p10p8-10p8----------------|

G|-------------------------------11b---r--------|

D|----------------------------------------------|

A|----------------------------------------------|

E|----------------------------------------------|

 

 

E|--------------------------|

B|-------10--10--10-/11-----|

G|----11-----11--11-/12-----|

D|-12--------12--12-/13-----|

A|--------------------------|

E|--------------------------|

 

 

Interlude(2x) (Don't be afraid...):

E|--------------------------------------------------|

B|--------------------------------------------------|

G|--------------------------------------------------|

D|--------------------------------------------------|

A|--5-4-5---5-4-5---5-4-5---6-5-6---6-5-6---6-5-6---|

E|--------------------------------------------------|

 

 

Repeat and fade out:

E|-6--6--6--5--5--5--|

B|-8--8--8--7--7--7--|

G|-8--8--8--7--7--7--|

D|-------------------|

A|-------------------|

E|-------------------|

 

 

Solo 2 (Outro):

E|--------------------------------------------------|

B|--------------------------------------------------|

G|--------------------------------------------------|

D|------------------------------------/8-7-8-7------|

A|--5-4-5---5-4-5---5-4-5--6------------------------|

E|--------------------------------------------------|

 

 

E|--------------------------------------------------|

B|--------------------------------------------------|

G|-----------------------------/7-6-7---------------|

D|-8-4-5-7-5-4-5--------5-7-8-----------------------|

A|--------------------------------------------------|

E|--------------------------------------------------|

 

 

E|--------------------------------------------------|

B|-11-10h11p10----11-10h11p10h11--------------------|

G|-------------12-----------------12-13b/\/\--12----|

D|--------------------------------------------------|

A|--------------------------------------------------|

E|--------------------------------------------------|

 

 

E|-9-9-9-9h10-10-10-10-11-10h11p10p9-10-------------|

B|--------------------------------------------------|

G|--------------------------------------------------|

D|--------------------------------------------------|

A|--------------------------------------------------|

E|--------------------------------------------------|

 

 

E|----------------------10-----------10-------------|

B|-8h10h11-10h11p10p8-8----8----8h10----8-----------|

G|--------------------------------------------------|

D|--------------------------------------------------|

A|--------------------------------------------------|

E|--------------------------------------------------|

 

 

E|------10h11p10----10h11p10p8h10-10h11p10p8-|

B|-8h10----------8---------------------------|

G|-------------------------------------------|

D|-------------------------------------------|

A|-------------------------------------------|

E|-------------------------------------------|

 

 

E|-10h11p10p8-10h11p10p8--8-------------------------|

B|---------------------------11--11p10--------------|

G|--------------------------------------------------|

D|--------------------------------------------------|

A|--------------------------------------------------|

E|--------------------------------------------------|

 

 

E|-----------------------------------------------15-|

B|-11br--10h11p10-\8-8--------/16-16-15h16p15p13----|

G|--------------------------------------------------|

D|--------------------------------------------------|

A|--------------------------------------------------|

E|--------------------------------------------------|

 

 

E|--------------------------------------------------|

B|-13h15-13h15-11h13p11\10--10h11p10p8h10-8-10------|

G|--------------------------------------------------|

D|--------------------------------------------------|

A|--------------------------------------------------|

E|--------------------------------------------------|

Return to my to my No Doubt tabs page

The Tablature is Copyright its respective owners.

Sign Up For My Newsletter
Subscribe | Unsubscribe

Site Map | Disclaimer | Privacy Policy | Media Kit | Submissions/Corrections

Website © 2000-2014 mattsmusicpage.com. All rights reserved.

Legal & DMCA: Matt's Music Page has been providing lyrics and tabs in a legal way, paying royalties each year to a few organizations. Then, all lyrics and tabs were removed from the site. Now, there's a new owner to the site, which purchased it August 26, 2014, and he is in negotiation to obtain licensing from BMI at the moment. If you have a specific DMCA request -- please do not hesitate to contact me via the contact button on top. I will do my very best to keep this site fully legal.

Get our toolbar!

 

1939 LYRIC THEATRE New York PHOTO
$5.83
1939 LYRIC THEATRE New York PHOTO picture


Star Spangled Banner or Marines Hymn lyrics signed by WWII Charles W. Lindberg
$10.0
Star Spangled Banner or Marines Hymn lyrics signed by WWII Charles W. Lindberg picture


OLD LARGE HISTORIC PHOTO OF THE LYRIC THEATRE, SYDNEY c1930s, WAR BONDS BOOTH
$7.42
OLD LARGE HISTORIC PHOTO OF THE LYRIC THEATRE, SYDNEY c1930s, WAR BONDS BOOTH picture


SONG OF REVOLUTION CARD SET WITH 13 MOST FAVORED COMMUNIST SONGS LYRICS + NOTES
$24.99
SONG OF REVOLUTION CARD SET WITH 13 MOST FAVORED COMMUNIST SONGS LYRICS + NOTES picture


OLD LARGE HISTORIC PHOTO OF THE LYRIC THEATRE, SYDNEY c1930s, WAR LOANS BOOTH
$7.42
OLD LARGE HISTORIC PHOTO OF THE LYRIC THEATRE, SYDNEY c1930s, WAR LOANS BOOTH picture