Your One-Stop Source For
Music Lyrics
Bass and Guitar Tabs
and More...
Music Lyrics Bass and Guitar Tabs

 

The Tabs Are Below

Learn To Read Tab
Chords Handbook
Corrections & Additions
Get Official Tab
No Doubt tabs @ 911Tabs

 

 

 

Let's Get Back

Guitar tablature transcribed by Bill Zang: zang@mail.sdsu.edu

 

 

Intro (And used before Trumpet solo)

e|---------------------------| |----------------------------------|

B|---------------8--8--------| |----------8-x-8-x-8-x-x-----------|

G|--3--3--3--3---8--8----2---| |--5---7---8-x-8-x-8-x-x--7--7-----|

D|--5--5--5--5---8--8----3---| |--6---8---8-x-8-x-8-x-x--8--8-----|

A|--5--5--5--5---6--6----3---| |--6---8---6-x-6-x-6-x-x--8--8-----|

E|--3--3--3--3-----------1---| |--4---6------------------6--6-----|

 

 

Chords for Main Riff (Listen to song for rhythm)

e|---3---4---6----8---|---3---4---6---7---|----8---4---6----8---|

B|---4---4---6---10---|---4---4---6---7---|----8---4---6----8---|

G|---5---5---7---10---|---5---5---7---8---|----8---5---7----8---|

D|---5---6---8---10---|---5---6---8---9---|---10---6---8---10---|

A|--------------------|-------------------|---------------------|

E|--------------------|-------------------|---------------------|

 

 

e|-----------------------------------|

B|-----------------------------------|

G|--5--5--5--5---4--4--4--4----------|

D|--6--6--6--6---5--5--5--5----------|

A|--6--6--6--6---5--5--5--5----------|

E|--4--4--4--4---3--3--3--3----------|

 

 

Chords for Chorus (Listen to song for rhythm...pattern changes)

e|---8----8----8----8-----8----8----8----8---|

B|---9----9----9----9-----8----8----8----8---|

G|--10---10---10---10-----8----8----8----8---|

D|--10---10---10---10----10---10---10---10---|

A|-------------------------------------------|

E|-------------------------------------------|

 

 

Riff for "Everytime I think about...."

e|-------5-----------5---------5------5--|

B|-----6---8-------6---8-----4---3----7--|

G|---7---------6/7---------5----------7--|

D|------------------------------------7--|

A|---------------------------------------|

E|---------------------------------------|

X 2

 

 

Chords for cool guitar part after middle chorus. (Listen for rhythm)

e|---8---8---8---8----8----8---7/8----8---|--10--10--10--10---8--8---11--10---8----|

B|---9---9---9---9----8----8---7/8----8---|---9---9---9---9---8--8----8---8---8----|

G|--10--10--10--10----8----8---7/8----8---|---8---8---8---8---8--8----8---8---8----|

D|--10--10--10--10---10---10--9/10---10---|--10--10--10--10--10-10---10--10--10----|

A|----------------------------------------|----------------------------------------|

E|----------------------------------------|----------------------------------------|

 

 

e|--10--10--10--10---10--10--10----8---9--|---10--10--10--10---10--10--10--10-------|

B|--11--11--11--11---10--10--10----9--10--|---11--11--11--11---10--10--10--10-------|

G|--12--12--12--12---10--10--10---10--11--|---12--12--12--12---10--10--10--10-------|

D|--12--12--12--12---12--12--12---10--11--|---12--12--12--12---12--12--12--12-------|

A|----------------------------------------|-----------------------------------------|

E|----------------------------------------|-----------------------------------------|

 

 

During Trumpet Solo

e|-----------------------------------------------------|

B|---------------7--7--7--7---5--5--5--5---7--7--7--7--|

G|--3--3--3--3---7--7--7--7---5--5--5--5---7--7--7--7--|

D|--5--5--5--5---7--7--7--7---5--5--5--5---7--7--7--7--|

A|--5--5--5--5---5--5--5--5---3--3--3--3---5--5--5--5--|

E|--3--3--3--3-----------------------------------------|

X 2

 

 

Guitar

e|-----------------------------------------------------------------------------|

B|---------------------------------------------------3---3-----3---------------|

G|---7--5--3----3h5--3h5p3------------------------3-----5^7---5^7---5--3h5--3--|

D|------------5------------5--3--5---------3---3-------------------------------|

A|----------------------------------3--3h5---5---------------------------------|

E|-----------------------------------------------------------------------------|

 

 

e|-----------------------------------------------------------------------------|

B|--------------18-------18----------------------------------------------------|

G|--17^19^17^19----17^19----17^19--19^17--15----15------17/19--17--18--19------|

D|-------------------------------------------17----17--------------------------|

A|-----------------------------------------------------------------------------|

E|-----------------------------------------------------------------------------|

 

 

Chords for "Don't you think I can see..."

e|---3---4---6---10---| |-----------------------------------|

B|---4---4---6----8---| |-----------------------------------|

G|---5---5---7----8---| |---5---5---5---5----4---4---4---4--|

D|---5---6---8----8---| |---6---6---6---6----5---5---5---5--|

A|--------------------| |---6---6---6---6----5---5---5---5--|

E|--------------------| |---4---4---4---4----3---3---3---3--|

 

 

Bass tablature transcribed by Eric Siljander: M_Siljander@bc.sympatico.ca

 

 

intro

G-|-----------3h5-----------------------------------------------

D-|----------------1--1--3----1h3-----------3h5--1--1--3----1h3-

A-|-------------------------------------------------------------

E-|--3--3--3---------------1-------3--3--3---------------1------

 

 

----------3h5------------|------------------8--8--8--------|

---------------1--1--3---|---------------------------------|

-------------------------|---------------------------------|

-3--3--3---------------1-|--4---4---6---6------------6--6--|

 

 

verses

|-----5--5--------------------3-------3-----3-----

|----------------------------------------------3--

|--3--------3--------------1-----0h1-----1--------

|--------------4--4--4--4----------------------1--

 

 

------5--5--------------------3-------------------

--------------------------------------------------

---3--------3--------------1-----0h1--2--2--2--2--

---------------4--4--4--4-------------------------

 

 

------5--5--------------------3-------3-----3-----|

-----------------------------------------------3--|

---3--------3--------------1-----0h1-----1--------|

---------------4--4--4--4----------------------1--|

 

 

fill

|--------------------------------------------------|

|--------------------------------------------------|

|--------------------------------------------------|

|--4--4--4--4--4--4--4--4--3--3--3--3--3--3--3--3--|

^_________________^

Tony plays around here

 

 

Chorus

||-----------------------------5-----7-----8-----10--||

||-----3-----5-----7-----8---------------------------||

||--------------------------3-----5-----6-----8------||

||--1-----3-----5-----6------------------------------||

X 4

 

 

|-----------------------------------------------------------

|-----------------------------------------------------------

|--------------5-5--5--5-4-3--3--0-3-4-5--/5--5-5-3-0-------

|--3--1-3-1-3------------------------------------------3\1--

 

 

-------------------------------------|

-------------------------------------|

----------5-5--5--5-4-3--3--0-3-4-5--|

-1-3-1-3-----------------------------|

 

 

|-----------------------------------------------------|

|-----------------------------------------------------|

|--8\----------8\----------10\--------8-9-10\---------|

|--------8\----------8\-----------10\------------10\--|

 

 

during trumpet solo

|-----------5h7-----------3h5-----------5h7----------------|

|-----------------------------------------------------3h5--|

|----------------5--5--5-------3--3--3-------5--5--5-------|

|--3--3--3-------------------------------------------------|

X 2

 

 

end of guitar solo

|---------------|

|---------------|

|--5--3--4--5\--|

|---------------|

During the verses you have to slap and pop pretty damn fast to get it to sound just right. It really is a tough song to play, especially if you cannot slap and pop. I couldn't figure out the part during the guitar solo although I know it's just a bunch of octaves.

 

 

Return to my to my No Doubt tabs page

The Tablature is Copyright its respective owners.

Sign Up For My Newsletter
Subscribe | Unsubscribe

Site Map | Disclaimer | Privacy Policy | Media Kit | Submissions/Corrections

Website © 2000-2014 mattsmusicpage.com. All rights reserved.

Legal & DMCA: Matt's Music Page has been providing lyrics and tabs in a legal way, paying royalties each year to a few organizations. Then, all lyrics and tabs were removed from the site. Now, there's a new owner to the site, which purchased it August 26, 2014, and he is in negotiation to obtain licensing from BMI at the moment. If you have a specific DMCA request -- please do not hesitate to contact me via the contact button on top. I will do my very best to keep this site fully legal.

Get our toolbar!