Your One-Stop Source For
Music Lyrics
Bass and Guitar Tabs
and More...
Music Lyrics Bass and Guitar Tabs

 

The Tabs Are Below

Learn To Read Tab
Chords Handbook
Corrections & Additions
Get Official Tab
No Doubt tabs @ 911Tabs

There's distorted bass as an intro, but I can make sound alright (well, kinda)

if I just crank down the treble on my guitar.

 

Intro

 

(Bass)

(e)|----------------------

(B)|----------------------

G |---------------------- x2

D |----------------------

A |----------------------

E |-3x3x3-4---4x4x4-3----

 

 

 

Verse

 

"The waves keep on crashing on me for some reason"

 

Guitar

e|-------------------

B|-15x15x15-16-------

G|-12x12x12-13-------

D|-12x12x12-13-------

A|-------------------

E|-------------------

 

"But your love keeps on coming like a thunderbolt

Come here a little closer

Cause I wanna see you baby, real close up"

 

 

 

Chorus

 

"You've got me feeling hella good

So let's just keep on dancing

You hold me like you should

So I'm gonna keep on dancing"

 

(Bass)

(e)|----------------------

(B)|----------------------

G |----------------------

D |----------------------

A |----------------------

E |-3x3x3-4---4-4-3------

 

(Bass)

(e)|------------------------

(B)|------------------------

G |------------------------

D |------------------------

A |-----------4-2-4-4-2----

E |-3x3x3-4-------------4-3

 

 

Verse

 

"Your performance deserving a standing ovation"

 

Guitar

e|-------------------

B|-15x15x15-16-------

G|-12x12x12-13-------

D|-12x12x12-13-------

A|-------------------

E|-------------------

 

"And who would have thought it'd be the two of us

So don't wake me if I'm dreaming

'Cause I'm in the mood come on and give it up

 

 

Chorus

 

"You've got me feeling hella good

So let's just keep on dancing

You hold me like you should

So I'm gonna keep on dancing"

 

(Bass)

(e)|----------------------

(B)|----------------------

G |----------------------

D |----------------------

A |----------------------

E |-3x3x3-4---4-4-3------

 

(Bass)

(e)|------------------------

(B)|------------------------

G |------------------------

D |------------------------

A |-----------4-2-4-4-2----

E |-3x3x3-4-------------4-3

 

 

Solo

 

e|----------------------------------------------------------------

B|-13-15-13p11h13-11---------------11----13-------9-8-9-11-9-8----

G|-------------------12-12-10---10----12----12--------------------

D|----------------------------------------------------------------

A|----------------------------------------------------------------

E|----------------------------------------------------------------

 

 

-----------------------------

-13-15-13p11h13-11-----------

-------------------12-12-10--

-----------------------------

-----------------------------

-----------------------------

 

 

Chorus

 

"You've got me feeling hella good

So let's just keep on dancing

You hold me like you should

So I'm gonna keep on dancing"

 

(Bass)

(e)|----------------------

(B)|----------------------

G |----------------------

D |----------------------

A |----------------------

E |-3x3x3-4---4-4-3------

 

(Bass)

(e)|------------------------

(B)|------------------------

G |------------------------

D |------------------------

A |-----------4-2-4-4-2----

E |-3x3x3-4-------------4-3

 

That's pretty much my take on Hella Good, so enjoy!

 

Return to my to my No Doubt tabs page

The Tablature is Copyright its respective owners.

Sign Up For My Newsletter
Subscribe | Unsubscribe

Site Map | Disclaimer | Privacy Policy | Media Kit | Submissions/Corrections

Website © 2000-2014 mattsmusicpage.com. All rights reserved.

Legal & DMCA: Matt's Music Page has been providing lyrics and tabs in a legal way, paying royalties each year to a few organizations. Then, all lyrics and tabs were removed from the site. Now, there's a new owner to the site, which purchased it August 26, 2014, and he is in negotiation to obtain licensing from BMI at the moment. If you have a specific DMCA request -- please do not hesitate to contact me via the contact button on top. I will do my very best to keep this site fully legal.

Get our toolbar!