Your One-Stop Source For
Music Lyrics
Bass and Guitar Tabs
and More...
Music Lyrics Bass and Guitar Tabs

 

The Tabs Are Below

Learn To Read Tab
Chords Handbook
Corrections & Additions
Get Official Tab
No Doubt tabs @ 911Tabs

EX GIRLFRIEND

INTRO

 

Em

E--8------7------5------3------2------0---------------------|

B-10-----8------7------5------4------1------4------1------|

G-----------------------------------------------4------2------|

D--------------------------------------------------------------|

A---------------------------------------------------------------|

E---------------------------------------------------------------|

 

 

CHORUS

Em B C F#mb5 C

E------------------------------------------------------------------------------------------------------------------|

B------------------------------------------------------------------------------------------------------------------|

G------------------------------------------------------------------------------------------------------------------|

D------------------------------------------------------------------------------------------------------------------|

A--------------------2---2---2---2---2---3---3---3---3---3---3---3---3--------------------3---3---3---3---|

E--0---0---0---0--------------------------------------------------------------2---2---2---2--------------------|

 

 

B

______________________________ _____________________________

|1 |2

E------------------------------------------------| E-----------------------------------------------|

B------------------------------------------------| B-----------------------------------------------|

G------------------------------------------------| G-----------------------------------------------|

D------------------------------------------------| D-----------------------------------------------|

A-------------------------------------------------| A--2----2----2----2---------------------------|

E----2----2----2----3----2----2----2----2----| E------------------------3----3----2----2-----|

 

 

CHORUS (clean guitar)

Em B C F#mb5 C B

E--------0---------0---------0----------0---------0---------0---------0---------0----|

B--5---------0---------5----------1---------5---------0---------4----------0---------|

G-----------------------------------------------------------------------------------------|

D-----------------------------------------------------------------------------------------|

A------------------------------------------------------------------------------------------|

E------------------------------------------------------------------------------------------|

 

 

BREAK

 

 

E B Em

E-------------------------------------------------8----7----5----3----2----0----------------|

B---5---------5---------4---------4-----------10---8----7----5----4----1----4----1----|

G--------4---------4---------4---------4------------------------------------------4----2----|

D------------------------------------------------------------------------------------------------|

A------------------------------------------------------------------------------------------------|

E------------------------------------------------------------------------------------------------|

 

 

GUITAR SOLO

 

 

Em

E------------------------------------------------------------------------------------------------------------|

B------------------------------------------------------------------------------------------------------------|

G------------------------------------------------------------------------------------------------------------|

D-------------------------------------------------------------------------------------------------------------|

A-------------------------------------------------------------------------------------------------------------|

E--0--0--0--0--0--0--0--0--0--0--0--0--0--0--0--0--0--0--0--0--0--0--0--0--0--0--7---7---7---|

 

 

_______________________________________________________ ________

|1 |2

E-----------------------------------------------------------------------------------------| E------------|

B-----------------------------------------------------------------------------------------| B------------|

G-----------------------------------------------------------------------------------------| G------------|

D-----------------------------------------------------------------------------------------| D------------|

A------------------------------------------------------------------------------------------| A------------|

E--0--0--0--0--0--0--0--0--0--0--0--0--0--0--0--0--7--7--7--7--7--7--7--7---| E--0---------|

 

 

CHORUS VARIATION

 

 

Em C F# C B

E--------0-----------0----------0-----------------0-----------------------0------------|

B--------------0-----------------------1-----------------------1-----------------0------|

G-----------------------------------------------------------------------------------------|

D-----------------------------------------------------------------------------------------|

A---------------------------3-----------------------------3-----------2------------------|

E--0------------------------------------------2-------------------------------------------|

 

 

Return to my to my No Doubt tabs page

The Tablature is Copyright its respective owners.

Sign Up For My Newsletter
Subscribe | Unsubscribe

Site Map | Disclaimer | Privacy Policy | Media Kit | Submissions/Corrections

Website © 2000-2014 mattsmusicpage.com. All rights reserved.

Legal & DMCA: Matt's Music Page has been providing lyrics and tabs in a legal way, paying royalties each year to a few organizations. Then, all lyrics and tabs were removed from the site. Now, there's a new owner to the site, which purchased it August 26, 2014, and he is in negotiation to obtain licensing from BMI at the moment. If you have a specific DMCA request -- please do not hesitate to contact me via the contact button on top. I will do my very best to keep this site fully legal.

Get our toolbar!

 

BRAND NEW KEY OF C HOHNER MINI HARMONICA HARP KEYRING KEYCHAIN KEY RING CHAIN
$8.21
BRAND NEW KEY OF C HOHNER MINI HARMONICA HARP KEYRING KEYCHAIN KEY RING CHAIN picture


RISING SONS BAND *2X3 FRIDGE MAGNET* VOCALS GUITAR MANDOLIN DOBRO HARMONICA SONG
$3.99
RISING SONS BAND *2X3 FRIDGE MAGNET* VOCALS GUITAR MANDOLIN DOBRO HARMONICA SONG picture


Vtg Christmas Angel Baby Girl W Harmonica Boy W Book SET OF 2 W GOLD WINGS
$125.0
Vtg Christmas Angel Baby Girl W Harmonica Boy W Book SET OF 2 W GOLD WINGS  picture


Beautiful Hand Carved Jewelry Trinket Jewelry Box Harmonica Case Bone And Brass
$14.5
Beautiful Hand Carved Jewelry Trinket Jewelry Box Harmonica Case Bone And Brass picture


BRAND NEW* HOHNER BOB DYLAN SIGNATURE LIMITED EDITION HARMONICA COLLECTORS ITEM
$140.19
BRAND NEW* HOHNER BOB DYLAN SIGNATURE LIMITED EDITION HARMONICA COLLECTORS ITEM picture