Your One-Stop Source For
Music Lyrics
Bass and Guitar Tabs
and More...
Music Lyrics Bass and Guitar Tabs

 

The Tabs Are Below

Learn To Read Tab
Chords Handbook
Corrections & Additions
Get Official Tab
No Doubt tabs @ 911Tabs

EXCUSE ME MR.

Guitar tablature transcribed by Christian Stefos: nyleve@Worldnet.att.net

 

 

INTRO: (capo on first fret on recording. Tom doesn't play the high e note live)

E:--1--1--1--1----1---1--1---1--1---1--1--1--1-1--1--1--1--1-1-

B:--10-10-10-10-10--8--8--8--8---6--6--6--6-6--5--5--5--5-5-

G:--10-10-10-10-10--9--9--9--9---7--7--7--7-7--5--5--5--5-5-

D:------------------------------------------------------------------------

A:------------------------------------------------------------------------

E:------------------------------------------------------------------------

(2 times)

 

 

VERSE:

E:----------------------------------------------

B:-----3-------3-3-------3-3--3-------3-----

-G:---2-------------0-2-3--------2-0-0---3-2-

D:-0-------2-3------------------------------ -

A:----------------------------------------------

E:----------------------------------------------

(repeat)

 

 

PRE CHORUS:

/: a strum

x: a muted string (s)

Dmin F Bb Gmin

// xx // xx // xx //

 

 

OCTAVE PART THAT LEADS INTO CHORUS:

E:-----------------------------------------------------------------

B:-----------------------------------------------------------------

G:-7--7--7-7--10-10--10-10--15--15-15-15--12-12-12-

D:----------------------------------------------------------------

A:-5--5--5-5--8--8-----8--8---13--13-13-13--10-10-10-

E:----------------------------------------------------------------

 

 

CHORUS: F//// G//// Bb//// C////

 

 

JAZZY INTERLUDE PART:

This looks confusing but this is the order of the chords, not necessarily by guitar but by the piano and trumpets - F - A7 - D7 - G7 - Gm7 - C7 - B7 - Bb - C - Bb - Am - Gm - F - A7 - D7 - G7 - Gm7 - C7 - B7 - Bb - C - Bb - Am - Gm - Dm - F6 - then back to the verse riff just slower.

 

 

Bass tablature transcribed by Ken M.: willmar@octonline.com

 

 

Intro

G---------------------------------------------------------------

D-----------------------5-7-8-7-5-----------5-7-8-7-5-----

A-----------------5-7-8-----------8-7-5-7-8-----------8-7--

E-111111111111111-----------------------------------------

repeat x2

 

 

G--------------------------------------------------------------------

D --------------------------------------------8-8-8-8--------------

----------A-5-5--5-8-8--8---------------5-5-5-5-8-8-8-8---------10-10-10-10-

E---------------6-6--6-3-3--3-------------------------------------

 

 

G-----------------------------------------------------

D-----------------------------------------------------

A|:-------------------1-1-1-1-3-3-3-3 :| x4-------

aaaaaaaE|:-1-1-1-1-3-3-3-3-------------------:| x4-------1~~~~~

- hold for a sec.

 

 

Fill 1

G-------------5-7-9-10-9-

D-------5-7-8-------------

A-5-7-8--------------------

E---------------------------

 

 

Pre-Chorus

G------------------------------------------------------------------------------------------------

D----------------------------------------------------------------------------7-7-7-------------

A-----------------1-1-1-1-3-3-3-3--8-8-8-8-10-10-10-10-----------------------7-5-7-

E-1-1-1-1-3-3-3-3------------------------------------------6-6-6-6-8-8-8-8-------------

 

 

G----------------------------------------------------------

D----------------------------------------------------------

A-1-1-1-1-3-3-3-3-----------------1-1-1-1-3-3-3-3-

E--------------------1-1-1-1-3-3-3-3-------------------

 

 

Chorus 1 - the album version is the same as the live version but without slapping and played with single notes.

G------------------------------------------------------------------------------------------------------------

D------------------------------------------------------------------------------------------------------------

A-----3-3-----3-------7-7-----7---5-5-----5-5---------5-5-----------5-5-----5---3-3-----3-3-2-2-

aaE-1-1-----1-1---1-5-5-----5-5---5-----5-5-----5-4-3-3-----3-1-2-3-3-----3-3---3-----3-3---------

 

 

G-----------------------------------------

D-----------------------------------------

A-1-1----1-1---1-3-3-1-1---------- x2

E-----1-1----1------------5-5-3-3- x2

 

 

Fill 2

G-------------------------------------------------------------------6->7-5---------------

D------------------------------------------------------------------------------8-7---------------

aaaaaaaaA------------------------1-1-1-1-3-3-3-3-8-8-8-8-10-10-10-10----------------8-8-8-8-7-7-7-7-5-

aaaaaE-1-1-1-1-3-3-3-3------------------------------------------------------------------8----------------

 

 

G-----------------------------------------------

D-----------------------------------------------

A-5-5-5-3-3-3-3-0-0-0-0-1-1-1-1---------3-3-3-3-

E-------------------------------3-3-3-3---------

 

 

 

 

Return to my to my No Doubt tabs page

The Tablature is Copyright its respective owners.

Sign Up For My Newsletter
Subscribe | Unsubscribe

Site Map | Disclaimer | Privacy Policy | Media Kit | Submissions/Corrections

Website © 2000-2014 mattsmusicpage.com. All rights reserved.

Legal & DMCA: Matt's Music Page has been providing lyrics and tabs in a legal way, paying royalties each year to a few organizations. Then, all lyrics and tabs were removed from the site. Now, there's a new owner to the site, which purchased it August 26, 2014, and he is in negotiation to obtain licensing from BMI at the moment. If you have a specific DMCA request -- please do not hesitate to contact me via the contact button on top. I will do my very best to keep this site fully legal.

Get our toolbar!