Your One-Stop Source For
Music Lyrics
Bass and Guitar Tabs
and More...
Music Lyrics Bass and Guitar Tabs

 

The Tabs Are Below

Learn To Read Tab
Chords Handbook
Corrections & Additions
Get Official Tab
No Doubt tabs @ 911Tabs

 

 

 

END IT ON THIS

Guitar tablature transcribed by Christian Stefos: nyleve@Worldnet.att.net

 

 

INTRO:

F Fmaj7 F7

E:---------------------------------------------------------------------

B:-------10-------10----10--------10-------10----10-------10--------10-

G:-------10-------10----10--------9--------9-----9--------8---------8--

D:---------------------------------------------------------------------

A:--8--8-----8--8-----8------8--8-----8--8-----8-----8--8-----8---8----

E:---------------------------------------------------------------------

 

 

Fmaj7

E:----------------------------------------

B:-------10---------10---------10------10-

G:-------8----------9----------9-------9--

D:----------------------------------------

A:---8-------8---8------8---8-------8-----

E:----------------------------------------

 

 

then to this part...

Dmin Dm/C# Dm/C

E:----------------------------------------------------------------------

B:---------6--------6----6---------6-------6-----6--------6------6----6-

G:---------7--------7----7---------7-------7-----7--------7------7----7-

D:----------------------------------------------------------------------

A:--5--5-------5--5----5-----4--4-----4--4----4-------------------------

E:--------------------------------------------------8--8-----8--8---8---

 

 

Dm/C#

E:-------------------------

B:--------6--------6-----6-

G:--------7--------7-----7-

D:-------------------------

A:--4--4-----4--4-----4----

E:-------------------------

 

 

KEYBOARD ARRANGED FOR GUITAR:

E:---------------------------------------------

B:---------------------------------------------

G:--12--10----12---9-----12--10----14-12--9----

D:---------10-------------------10----------10-

A:---------------------------------------------

E:---------------------------------------------

 

 

VERSE:

Dm Dm/E Dm/F Gm

E:----------5------------------------------------------------------------

B:----------6------------------------------------------------3-------5---

G:----------7----------------------------------------------3-------6-----

D:----------7-------------------------------------------5-----5--7-----7-

A:--5-5-5-5-5-5-5--7-7-7-7-7-7-7-7-7-7-8-8-8-8-8-8-8---------------------

E:-----------------------------------------------------------------------

 

 

Dm Dm/E Dm/F Dm/C#

E:----------------------------------------------------------------------

B:----------------------------------------------------------------------

G:----------------------------------------------------------------------

D:-----------------------------------7-7-7-7--------------7-7-7-7-7-7-7-

A:-5-5-5-5-5-5-5-5-5-7-7-7-7-7-7-7-7-8-8-8-8-8-8-8-10-4-4-4-4-4-4-4-4-4-

E:----------------------------------------------------------------------

 

 

...my gut feeling its not happening for me...

E:--------------------------------------------------------

B:--------3----------3---------3------------3---------5---

G:-----2-----2-----2----2----2----2------3----------6-----

D:-0-----------2----------3-----------5-------5--7------7-

A:--------------------------------------------------------

E:--------------------------------------------------------

 

 

CHORUS: same as intro (F Fmaj7 F7 Fmaj7)

BRIDGE: I open up you ignore me...

Bb Dm Gm F Bb Dm - then to this riff:

E:--------------------------------

B:------------------------------3-

G:-----------------3----------5---

D:-3---5---------5-----4-sl-5-----

A:-------4-sl-5-------------------

E:--------------------------------

 

 

...then back to chord progression

 

 

GUITAR SOLO: You have to bend the "B" strings note to the note on the high "E" string. example- they should sound the same with the bend:

E:-10-----10-----------10--10------------10---------10-----------10----

B:-13b----13b-13-10-13-13b-13b-13-10-13--13b-13-13--13b-13-10-13-13-13-

G:---------------------------------------------------------------------

D:---------------------------------------------------------------------

A:---------------------------------------------------------------------

E:---------------------------------------------------------------------

 

 

E:-13---13---12---12--13---13--12--12--

B:-16b--16b--15b--15b-16b--16b-15b-15b-

G:-------------------------------------

D:-------------------------------------

A:-------------------------------------

E:-------------------------------------

 

 

This is part of the outro; and the other part is just the second part of the intro.

E:---------------------------------------------------------

B:---------------------------------------------------------

G:-----7-----7----------7----7---------7---7-------7---7---

D:---7-----7-----7----7----7----7----7---7---7---7---7---7-

A:-5-----5-----5----7----7----7----8---8---8---7---7---7---

E:---------------------------------------------------------

 

 

Return to my to my No Doubt tabs page

The Tablature is Copyright its respective owners.

Sign Up For My Newsletter
Subscribe | Unsubscribe

Site Map | Disclaimer | Privacy Policy | Media Kit | Submissions/Corrections

Website © 2000-2014 mattsmusicpage.com. All rights reserved.

Legal & DMCA: Matt's Music Page has been providing lyrics and tabs in a legal way, paying royalties each year to a few organizations. Then, all lyrics and tabs were removed from the site. Now, there's a new owner to the site, which purchased it August 26, 2014, and he is in negotiation to obtain licensing from BMI at the moment. If you have a specific DMCA request -- please do not hesitate to contact me via the contact button on top. I will do my very best to keep this site fully legal.

Get our toolbar!