Your One-Stop Source For
Music Lyrics
Bass and Guitar Tabs
and More...
Music Lyrics Bass and Guitar Tabs

 

The Tabs Are Below

Learn To Read Tab
Chords Handbook
Corrections & Additions
Get Official Tab
No Doubt tabs @ 911Tabs

 Don't Speak

No Doubt

 

 

|-----------------|

|-4---4---4---4---|

|-5---5---5---5---| 3 times

|---5---5---5---5-|

|-----------------|

|-----------------|

 

 

|-----------------|-----------------|-----------------|

|-3---3---1---1---|-3---3---3---3---|-1---1---3---3---|

|-3---3---1---1---|-3---3---3---3---|-1---1---3---3---|

|---5---5---3---3-|---3---3---5---5-|---3---3---3---3-|

|-----------------|-----------------|-----------------|

|-----------------|-----------------|-----------------|

 

 

|-----------------|-----------------|-----------------|-----------------|

|-4---4---3---3---|-1---1---3---3---|-3---3---4---4---|-1---1---3---3---|

|-4---4---3---3---|-1---1---3---3---|-3---3---4---4---|-1---1---3---3---|

|---5---5---5---5-|---3---3---3---3-|---5---5---5---5-|---3---3---3---3-|

|-----------------|-----------------|-----------------|-----------------|

|-----------------|-----------------|-----------------|-----------------|

 

|-----------------|-----------------|-----------------|-6---------------|

|-4---4---3---3---|-1---1---3---3---|-8---8---6---6---|-8---------------|

|-4---4---3---3---|-1---1---3---3---|-8---8---7---7---|-8---------------|

|---5---5---5---5-|---3---3---3---3-|--10--10---8---8-|-8---------------|

|-----------------|-----------------|-----------------|-6---------------|

|-----------------|-----------------|-----------------|-----------------|

 

|-8-------------------------8----|

|-9--------6------------6---9----|

|-10---6---8---8----6---8---10---|

|-10---8---8---10---8---8---10---|

|-8----8---6---10---8---6---8----|

|------6-------8----6------------|

 

--------------------------------------------------------------------------------

Don't Speak

No Doubt

 

Flamenco solo

e.--------------------------------------------------

B.----------6--8--6--------------------8--6--9------

G.---5--8------------7-----------5--8---------------

D.-----------------------8--5--6--------------------

A.--------------------------------------------------

E.--------------------------------------------------

 

e.--------------------------------------------------

B.--------6--8--6--------------6--8--6--9--8--6--6--

G.--5--8-----------7--------------------------------

D.---------------------8--5--6----------------------

A.--------------------------------------------------

E.--------------------------------------------------

 

 

--------------------------------------------------------------------------------

Don't Speak

No Doubt

 

Intro & Verse 1

_________________

| Cm 3X| Gm Fm Gm7 Gm Fm Gm7

E|-----------------|-----------------|-----------------|-----------------|

B|-4---4---4---4---|-3---3---1---1---|-3---3---3---3---|-1---1---3---3---|

G|-5---5---5---5---|-3---3---1---1---|-3---3---3---3---|-1---1---3---3---|

D|---5---5---5---5-|---5---5---3---3-|---3---3---5---5-|---3---3---3---3-|

A|-----------------|-----------------|-----------------|-----------------|

E|-----------------|-----------------|-----------------|-----------------|

Cm Gm Fm Gm7 Gm Cm Fm Gm7

E|-----------------|-----------------|-----------------|-----------------|

B|-4---4---3---3---|-1---1---3---3---|-3---3---4---4---|-1---1---3---3---|

G|-5---5---3---3---|-1---1---3---3---|-3---3---5---5---|-1---1---3---3---|

D|---5---5---5---5-|---3---3---3---3-|---5---5---5---5-|---3---3---3---3-|

A|-----------------|-----------------|-----------------|-----------------|

E|-----------------|-----------------|-----------------|-----------------|

Cm Gm Fm Gm7 Cm7(on E)A#(on E) C

E|-----------------|-----------------|-----------------|-----------------|

B|-4---4---3---3---|-1---1---3---3---|-8---8---6---6---|-5---------------|

G|-5---5---3---3---|-1---1---3---3---|-8---8---7---7---|-5---------------|

D|---5---5---5---5-|---3---3---3---3-|---8---8---8---8-|-5---------------|

A|-----------------|-----------------|-----------------|-3---------------|

E|-----------------|-----------------|-----------------|-----------------|

 

Chorus: (2X - Starts w/ "Don't speak, I know just what you're

sayin'...")

Fm A#m D# C A#m

E|--8--x-8--x-8----6-x-6-x-6---6-x-6-x-6---8--x-8--x-8----6-x-6-x-6--|

B|--9--x-9--x-9----6-x-6-x-6---8-x-8-x-8---8--x-8--x-8----6-x-6-x-6--|

G|--10-x-10-x-10---6-x-6-x-6---8-x-8-x-8---9--x-9--x-9----6-x-6-x-6--|

D|--10-x-10-x-10---8-x-8-x-8---8-x-8-x-8---10-x-10-x-10---8-x-8-x-8--|

A|--8--x-8--x-8----8-x-8-x-8---6-x-6-x-6---10-x-10-x-10---8-x-8-x-8--|

E|-----------------6-x-6-x-6---------------8--x-8--x-8----6-x-6-x-6--|

D# Fm C# C

E|--6-x-6-x-6---8------------------|

B|--8-x-8-x-8---9---------9----8---|

G|--8-x-8-x-8---10--------10---9---|

D|--8-x-8-x-8---10--------11---10--|

A|--6-x-6-x-6---8---------11---10--|

E|------------------------9----8---|

 

Verse 2 (Progression is the same as Verse 1)

*Second half of Verse 2 goes like: (Starts w/ "As we die...")

Cm Gm Fm A# D# A# C

E|--3-3---3-3---1-1---6-6---6-6---6-6---3--|

B|--4-4---3-3---1-1---6-6---8-8---6-6---5--|

G|--5-5---3-3---1-1---7-7---8-8---7-7---5--|

D|--5-5---5-5---3-3---8-8---8-8---8-8---5--|

A|--3-3---5-5---3-3---8-8---6-6---8-8---3--|

E|--------3-3---1-1---6-6---------6-6------|

 

Chorus

*The second time, before the bridge, the chord progression changes at

the Fm to:

Fm5 D#5 C5 G#5

E|------------------|

B|------------------|

G|--10---8---5------|

D|--10---8---5---6--|

A|--8----6---3---6--|

E|---------------4--|

 

Bridge: (Starts w/ "It's all ending, we gotta stop pretending...")

C# G# B F# A C# D# C#5/D#5 G#

E|--4-4---4-4---2-2---2-2---5---4---6----------------4--|

B|--6-6---4-4---4-4---2-2---5---6---8----------------4--|

G|--6-6---5-5---4-4---3-3---6---6---8-----6/8--8--8--5--|

D|--6-6---6-6---4-4---4-4---7---6---8-----6/8--8--8--6--|

A|--4-4---6-6---2-2---4-4---7---4---6-----4/6--6--6--6--|

E|--------4-4---------2-2---5------------------------4--|

 

Solo: (All notes are picked unless shown otherwise)

*Tabbed so that it would be the easiest to play

 

/=slide up h=hammer-on p=pull-off ^=bend (x)=quiet

 

E|-----------1-3-1--------------------1-3-1--3--------1-3-1--------------|

B|--4---1--4--------3---------(1)-1/4-------------1-4--------3-----------|

G|---------------------3-0-1------------------------------------3-0--1---|

D|-----------------------------------------------------------------------|

A|-----------------------------------------------------------------------|

E|-----------------------------------------------------------------------|

 

E|-------------------------8---8-10-11-10-8----8-------------------------|

B|--8-9-8h9-11--9p8--------8----------------11---8-11----8------8-9-11---|

G|------------------10^----8--------------------------10---8-10----------|

D|-----------------------------------------------------------------------|

A|-----------------------------------------------------------------------|

E|-----------------------------------------------------------------------|

 

E|-----------------------------------------------------------------------|

B|--9h11p9-8-(11)--------------------------------------------------------|

G|---------------------------------------3-5-3---------------------------|

D|--------------------------3-5----3-5-6-------6-5h6p5-(3)---------------|

A|--------------------3/5-6-----6----------------------------------------|

E|-----------------------------------------------------------------------|

 

Verse 3 (Same as Verse 1)

*Right after "I can see us dying..." (Gm7), it changes to:

F5 A#5

E|------------------------------------|

B|------------------------------------|

G|------------------------------------|

D|--3-3-3-3-3-3-3-3--8-8-8-8-8-8-8-8--|

A|--3-3-3-3-3-3-3-3--8-8-8-8-8-8-8-8--|

E|--1-1-1-1-1-1-1-1--6-6-6-6-6-6-6-6--|

 

Outro (Chorus is repeated w/ different lyrics)

--------------------------------------------------------------------------------

"Don't Speak

No Doubt

 

 

Intro (Clean - don't pick)

C G F Bb G F Bb

E|:-----------------:|-----------------|-----------------|-----------------|

B|:-4---4---4---4---:|-3---3---1---1---|-3---3---3---3---|-1---1---3---3---|

G|:-5---5---5---5---:|-3---3---1---1---|-3---3---3---3---|-1---1---3---3---|

D|:---5---5---5---5-:|---5---5---3---3-|---3---3---5---5-|---3---3---3---3-|

A|:-----------------:|-----------------|-----------------|-----------------|

E|:-----------------:|-----------------|-----------------|-----------------|

(3 times) "we used to be together...."

 

C G F Bb G C F Bb

E|-----------------|-----------------|-----------------|-----------------|

B|-4---4---3---3---|-1---1---3---3---|-3---3---4---4---|-1---1---3---3---|

G|-5---5---3---3---|-1---1---3---3---|-3---3---5---5---|-1---1---3---3---|

D|---5---5---5---5-|---3---3---3---3-|---5---5---5---5-|---3---3---3---3-|

A|-----------------|-----------------|-----------------|-----------------|

E|-----------------|-----------------|-----------------|-----------------|

"I really feel.." "the end..."

 

 

C G F Bb F Bb C

E|-----------------|-----------------|-----------------|-3---------------|

B|-4---4---3---3---|-1---1---3---3---|-8---8---6---6---|-5---------------|

G|-5---5---3---3---|-1---1---3---3---|-8---8---7---7---|-5---------------|

D|---5---5---5---5-|---3---3---3---3-|--10--10---8---8-|-5---------------|

A|-----------------|-----------------|-----------------|-3---------------|

E|-----------------|-----------------|-----------------|-----------------|

"It looks as though.."

 

Notes above represent bass - and guitar chords (later in song)

 

 

Chorus

E|-8----------------------6---------------------8-----------------|

B|-9-----------------6----8----8-----6----8-----9-----6-----8-----|

G|-10----------------6----8----9-----6----9-----10----6-----9-----|

D|-10----------------8----8----10----8----10----10----8-----10----|

A|-8-----------------8----6----10----8----10----8-----8-----10----|

E|-------------------6---------8-----6----8-----------6-----8-----|

"Dont speak.."

 

 

 

Acoustic Guitar Solo

E|----------------------------------------------------

B|----------8------------------------6/8----8~--------

G|-----8-10---10---7---------------8-----10-----------

D|-/10---------------8~---5-6--/10--------------------

A|----------------------------------------------------

E|----------------------------------------------------

 

E|----------------------------------------------------

B|----------8-------------------8-9-8-9-11--9p8-------

G|-----8-10---10--7-----------------------------10----

D|-/10--------------8~---5-6--------------------------

A|----------------------------------------------------

E|----------------------------------------------------

 

E|-x-8-10-11--10h11-8h10----8-------------------------

B|-x---------------------11---8-11----8------8-9-11-9-

G|-x-------------------------------10---8-10----------

D|----------------------------------------------------

A|----------------------------------------------------

E|----------------------------------------------------

rake

 

E|----------------------------------------------------

B|-9h11p9p8-------------------------------------------

G|--------------------------------3-5-3---------------

D|--------------------3-5---3-5-6-------6-5h6p5~------

A|--------------3-5/6-----3---------------------------

E|----------------------------------------------------

 

 

 

Return to my to my No Doubt tabs page

The Tablature is Copyright its respective owners.

Sign Up For My Newsletter
Subscribe | Unsubscribe

Site Map | Disclaimer | Privacy Policy | Media Kit | Submissions/Corrections

Website © 2000-2014 mattsmusicpage.com. All rights reserved.

Legal & DMCA: Matt's Music Page has been providing lyrics and tabs in a legal way, paying royalties each year to a few organizations. Then, all lyrics and tabs were removed from the site. Now, there's a new owner to the site, which purchased it August 26, 2014, and he is in negotiation to obtain licensing from BMI at the moment. If you have a specific DMCA request -- please do not hesitate to contact me via the contact button on top. I will do my very best to keep this site fully legal.

Get our toolbar!