Your One-Stop Source For
Music Lyrics
Bass and Guitar Tabs
and More...
Music Lyrics Bass and Guitar Tabs

 

The Tabs Are Below

Learn To Read Tab
Chords Handbook
Corrections & Additions
Get Official Tab
No Doubt tabs @ 911Tabs

 

 

DJ's

Guitar tablature transcribed by Marco Gaus: marco.gaus@tu-clausthal.de

E|-8----8----8----8----|

B|-8----8----8----8----|

G|-9----9----9----9----|

D|-10---10---10---10---|

A|---------------------|

E|---------------------|

 

 

"Ain't nothin' wrong, ain't nothin' right...":

E|-------------------------------------------------------------7-----|

B|-------------------------------------------------------------8-----|

G|-------------------------------------------------------------7-----|

D|-----------5-7----------------5-7---------7-10---------------9-----|

A|-----5-5/7------------5-7---7--------8--8--------------7-10--10----|

E|-5-8--------------5-8-----------------------------8--8-------------|

 

 

"Oh all of the D.J.'s surely have taken a lesson..."

E|-8---8---8---8---------------------------------------------|

B|-8---8---8---8---------------------------------------------|

G|-9---9---9---9---------------------------------------------|

D|-10--10--10--10-10--10--8-----8---10---10-10-10-8-------8--|

A|--------------------------10----------------------10-10----|

E|-----------------------------------------------------------|

 

 

"Ah Dreddy's got a job to do but he might fulfill his mission..":

E|-8----8----8----8----5---5---7---7----|

B|-8----8----8----8----6---6---8---8----|

G|-9----9----9----9----5---5---7---7----|

D|-10---10---10---10---7---7---9---9----|

A|--------------------------------------|

E|--------------------------------------|

 

 

After "bo bo bo!!!":

E|----------------------------------------------------------------|

B|----------------------------------------------------------------|

G|----------------------------------------------------------------|

D|----------------------------------------7--------9----12-9----9-|

A|---------7--10-----7---10-7---7-8-8-8-8----8--10---10------10---|

E|-8-8-8-8---------8---8------8-----------------------------------|

 

 

"I won't wait so long":

E|-8----------8---------8---------8------5------5------7------7---|

B|-8----------8---------8---------8------6------6------8------8---|

G|-9----------9---------9---------9------5------5------7------7---|

D|-10--10-10-10--10-10-10--10-10-10--7-7-7--7-7-7--9-9-9--9-9-9---|

A|----------------------------------------------------------------|

E|----------------------------------------------------------------|

 

 

Return to my to my No Doubt tabs page

The Tablature is Copyright its respective owners.

Sign Up For My Newsletter
Subscribe | Unsubscribe

Site Map | Disclaimer | Privacy Policy | Media Kit | Submissions/Corrections

Website © 2000-2014 mattsmusicpage.com. All rights reserved.

Legal & DMCA: Matt's Music Page has been providing lyrics and tabs in a legal way, paying royalties each year to a few organizations. Then, all lyrics and tabs were removed from the site. Now, there's a new owner to the site, which purchased it August 26, 2014, and he is in negotiation to obtain licensing from BMI at the moment. If you have a specific DMCA request -- please do not hesitate to contact me via the contact button on top. I will do my very best to keep this site fully legal.

Get our toolbar!