Your One-Stop Source For
Music Lyrics
Bass and Guitar Tabs
and More...
Music Lyrics Bass and Guitar Tabs

 

The Tabs Are Below

Learn To Read Tab
Chords Handbook
Corrections & Additions
Get Official Tab
No Doubt tabs @ 911Tabs

 

 

 

YOU CAN DO IT

 

 

Bass tablature transcribed by Adam Yanalunas: timmons@tir.com

G---|-------------------------

D-4-|-------------------------

A-4-|--1--1--1--1--3--3--3--3-

E---|-------------------------

 

 

G--|-------------------------------------------------

D--|-------------------------------------------------

A--|--5--5--7--7--8--8--7--7-------------------------

E--|--------------------------3--3--5--5--6--6--5--5-

 

 

G--|-------------------------------------------------

D--|--------------------------5--5--7--7--8--8--7--7-

A--|--5--5--7--7--8--8--7--7-------------------------

E--|-------------------------------------------------

 

 

G--|----------------

D--|----------------

A--|--5--5--6--6--5-

E--|----------------

 

 

G--|-------------------------------------------------

D--|-------------------------------------------------

A--|--5--5--7--7--8--8--7--7-----5--5--------7--7----

E--|--------------------------3--------3--5--------5-

 

 

G--|----------------------------------------

D--|----------------------------------------

A--|--10\---10--10--10\---10\---10--10--10\-

E--|----------------------------------------

 

 

G--|-------------------

D--|-------------------

A--|--5--5--5--8--8--8-

E--|-------------------

 

 

G--|----------------------------------------------------

D--|-----------------------------------------5--7--8--7-

A--|--5--7--8--7--7--------------5--7--8--7-------------

E--|-----------------3--5--6--5-------------------------

 

 

solo-interlude

G--|-------------------------------

D--|------15h17--18--15--18--17----

A--|--17------------------------17-

E--|-------------------------------

 

 

G--|--17--19--19--17--19--------------------

D--|----------------------17------15h17-----

A--|--------------------------15------------

E--|----------------------------------------

 

 

G--|---------------------

D--|-18--15--17----------

A--|-------------17--17\-

E--|---------------------

 

 

G--|------------------------------------------------------------

D--|------------------------------------------------------------

A--|-8--8--10--10--11--11--11--11--10-----8--8--------10--10----

E--|-----------------------------------6--------6--8----------8-

 

 

G--|---------------------------------

D--|---------------------------------

A--|---------------------------------

E--|-13\-13--13--13\13\13--13--13\13-

 

 

G--|--------------------------------------

D--|--------------------------------------

A--|--------------------------------------

E--|-13\13--13--13\13--9--11--9--9--11--9-

 

 

G--|----------------------

D--|----------------------

A--|----------------------

E--|-13--9--11--13--9--11-

 

 

Return to my to my No Doubt bass tabs page

The Tablature is Copyright its respective owners.

Sign Up For My Newsletter
Subscribe | Unsubscribe

Site Map | Disclaimer | Privacy Policy | Media Kit | Submissions/Corrections

Website © 2000-2014 mattsmusicpage.com. All rights reserved.

Legal & DMCA: Matt's Music Page has been providing lyrics and tabs in a legal way, paying royalties each year to a few organizations. Then, all lyrics and tabs were removed from the site. Now, there's a new owner to the site, which purchased it August 26, 2014, and he is in negotiation to obtain licensing from BMI at the moment. If you have a specific DMCA request -- please do not hesitate to contact me via the contact button on top. I will do my very best to keep this site fully legal.

Get our toolbar!