Your One-Stop Source For
Music Lyrics
Bass and Guitar Tabs
and More...
>Music Lyrics Bass and Guitar Tabs

 

The Tabs Are Below

Learn To Read Tab
Chords Handbook
Corrections & Additions
Get Official Tab
No Doubt tabs @ 911Tabs

Bass tablature transcribed by Adam Yanalunas: timmons@tir.com

---|----------------------------------

4--|----------------------------------

4--|--12--12--11--11--10--10--9--9--7-

---|----------------------------------

 

 

main line

|---------------------------------------

|---------------------------------------

|---------------------------------------

|--7--10--7--6--2--6--7--10--7--6--2--6-

 

 

fill 1

|------------------------

|------------------------

|-------------5----------

|-7--2--6--7-----7--6--2-

 

 

|--------------------------------------------

|--------------------------------------------

|----------8--8--10--10-----------6--6--8--8-

|--10--10------------------8--8--------------

 

 

|-------------------------------------------------

|-------------------------------------------------

|--8--8--7--7--6--6--5--5--9--9--8--8--7--7--6--6-

|-------------------------------------------------

 

 

|--------------------------------------------------------------

|---------------12-----11-----10------------------11-----10----

|--9--9--12--9------9------9------9--8--8--11--8------8------8-

|--------------------------------------------------------------

 

 

--------------------------------------------------------------

-9------------------10-----9-----8-----------------9-----8----

----8--7--7--10--7------7-----7-----7--6--6--9--6-----9-----6-

--------------------------------------------------------------

 

 

---------------

-7-------------

----6--5--6--7-

---------------

 

 

|-----------------11--------------------------------

|--------------9------11--9--------------7--9--8--7-

|--9--9-----9----------------7--7-----7-------------

|--------9-------------------------7----------------

 

 

|-------------------------------------------------------------

|-------------------------------------------------------------

|--9--9-----9-----8--8-----8-----7--7-----7-----6--6-----6----

|--------9-----9--------8-----8--------7-----7--------6-----6-

 

 

|--------------------------------------------------------------

|--------------------------------------------------------------

|----12----12-----12------14------14------14-----8-----8-----8-

|-10----10----10------12------12------12------6-----6-----6----

 

 

|-------------------

|-------------------

|-----7-----7-----7-

|--5-----5-----5----

 

 

|------------------------------------------------------------

|-------------8-----7-----6-----------------7-----6-----5----

|-5--5--8--5-----5-----5-----5--4--4--7--4-----4-----4-----4-

|------------------------------------------------------------

 

 

------------------------------------------------------

-------------6-----5-----4-----------------5----------

-3--3--6--3-----3-----3-----3--2--2--5--2-----1--2--3-

------------------------------------------------------

 

 

|-------------------------------------------------

|-------------------------------------------------

|--9--9--9--9--9--9--9--9--8--8--8--8--8--8--8--8-

|-------------------------------------------------

 

 

------------------------------------------------

------------------------------------------------

-7--7--7--7--7--7--7--7--6--6--6--6--6--6--6--6-

------------------------------------------------

As the song moves on, you'll have to use fill 1 more and more often. And near the end just go up and down from 6 to 9 for that weird sound. Also keep in mind that this is just the tabs. Its not all correct, and you'll have to substitute some of the fret numbers into the right tempo. Just fiddle with it and you should get it all correct.

 

 

Return to my to my No Doubt bass tabs page

The Tablature is Copyright its respective owners.

Sign Up For My Newsletter
Subscribe | Unsubscribe

Site Map | Disclaimer | Privacy Policy | Media Kit | Submissions/Corrections

Website © 2000-2014 mattsmusicpage.com. All rights reserved.

Legal & DMCA: Matt's Music Page has been providing lyrics and tabs in a legal way, paying royalties each year to a few organizations. Then, all lyrics and tabs were removed from the site. Now, there's a new owner to the site, which purchased it August 26, 2014, and he is in negotiation to obtain licensing from BMI at the moment. If you have a specific DMCA request -- please do not hesitate to contact me via the contact button on top. I will do my very best to keep this site fully legal.

Get our toolbar!

 

VINTAGE DRUM-SHAPED, DECORATIVE BASKET
$5.0
VINTAGE DRUM-SHAPED, DECORATIVE BASKET picture


Clown Riding a Unicycle and Playing the Drum Body is Stuffed 11.5" tall
$24.91
Clown Riding a Unicycle and Playing the Drum Body is Stuffed 11.5


Vintage Postcard Lexington Historical Society Drum Beaten At Battle By Dimond
$6.99
Vintage Postcard Lexington Historical Society Drum Beaten At Battle By Dimond picture


VTG. USED POST CARD,1952 PUEBLO INDIANS MAKING HOLLOW LOG DRUMS,N.M.
$6.99
VTG. USED POST CARD,1952 PUEBLO INDIANS MAKING HOLLOW LOG DRUMS,N.M. picture


Lady Angel Childen Girls Boy Playing Drum--Tuck's Vintage Christmas Postcard
$45.0
Lady Angel Childen Girls Boy Playing Drum--Tuck's Vintage Christmas Postcard picture