Your One-Stop Source For
Music Lyrics
Bass and Guitar Tabs
and More...
Music Lyrics Bass and Guitar Tabs

 

The Tabs Are Below

Learn To Read Tab
Chords Handbook
Corrections & Additions
Get Official Tab
No Doubt tabs @ 911Tabs

No Doubt - Snakes

Submitted By:Robert

E-mail:Deft713@aol.com

Tabbed by:Robert

 

Intro Main Line

---|------------|--------------------------------------------

4--|------------|---------2--4--5--4--5--4--2----------------

4--|------------|------------------------------------2--3--2-

---|---0--0-----|---0--0-----------------------0--0----------

 

Weird Fill Type Stuff Yet Another Fill Thingie

|-------------------------------||------------------------------------||

|-----7--8--5-------------------||*----------------------------------*||

|--------------8--7--5----------||*----------------------------------*||

|-5-5-------------------8--7--5-||-3--3--3--3--3--3--5--5--5--5--5--5-||

 

A Vital Piece Of The Song

|--------------------------------------------------------

|------------9-----------------------------------9-------

|---------9-----9-----------------------------9-----9----

|---7--7-----------7--5--5--5--5--5--5--7--7-----------7-

 

|-------------------------------------------------------------

|--------5--7--5--------------------9-------------------------

|-----------------8--7--5--------9-----9-----------5--7--8--7-

|--5--5--------------------7--7-----------7--5--5-------------

 

|--------------------------------------

|--------------------------------------

|--------------------------------------

|7--7--7--7--7--7--9--9--9--9--9--9--9-

 

Chorus Still Chorus

||----------7h9--7h9---------||||----------9-----5--------7---

||*------9------------9-----*||||*------------------5--------7

||*---7------------------7--*||||*---7--------3--------5------

||---------------------------||||-----------------------------

 

---------3h5--3h5--3-----------7--5---------------||

------5---------------5-----7--------7--5--3-----*||

---3---------------------5--------------------5--*||

--------------------------------------------------||

 

Enjoy!

 

 

Return to my to my No Doubt bass tabs page

The Tablature is Copyright its respective owners.

Sign Up For My Newsletter
Subscribe | Unsubscribe

Site Map | Disclaimer | Privacy Policy | Media Kit | Submissions/Corrections

Website © 2000-2014 mattsmusicpage.com. All rights reserved.

Get our toolbar!