Your One-Stop Source For
Music Lyrics
Bass and Guitar Tabs
and More...
Music Lyrics Bass and Guitar Tabs

 

The Tabs Are Below

Learn To Read Tab
Chords Handbook
Corrections & Additions
Get Official Tab
No Doubt tabs @ 911Tabs

Six feet under

no doubt

tabbed adrian young if you want no doubt tabs e-mail jt4467@aol.com

 

Intro

A-8-8-8-8-8-8-8-8-----------------8-8-8-8-8-8-8-8----------------

E-----------------6-6-6-6-6-6-6-6-----------------6-6-6-6-6-6-6-6

 

VERSE

A-8-8-8-8-8-8-8-8-----------------8-8-8-8-8-8-8-8---------6-6-6-6

E-----------------6-6-6-6-6-6-6-6-----------------6-6-6-6--------

 

A-8-8-8-8-8-8-8-8-----------------8-8-8-8-8-8-8-8----------------

E-----------------6-6-6-6-6-6-6-6-----------------6-6-6-6-6-6-6-6

 

D-----------------------------------------3-3-3-3----------------

A-5-5-5-5-3-3-3-3---------3-3-3-3-5-5-5-5------------------------

E-----------------6-6-6-6-------------------------6-6-6-6-6-6-6-6

 

D---------------------------------3-3-3-3-3-3-3-3---

A-5-5-5-5-3-3-3-3---------3-3-3-3-------------------

E-----------------6-6-6-6--------------------------6

CHOURS

A-4-4-4-4----------------------4-4-4-4---------------8-6-4-4-4-4----

E---------4-4--6-6-6-6-2-1-2-4---------4-4-6-6-6/9-9-------------4-4-

 

E-6-6-6-6-2-1-2-4--1-1-1-1-1-1-1-1---4

2ND CHOUR SAME AND ADD

E-2-2-2-2-2-2-2-2-1-1-1-1-1-1-1-1-4-4-4-4-4-4-4-4-4-4-4-

BRIDGE

D--------------7-8-7--7-8-10--------------8-7-8--7-10-8-7-----------------

A-8-7-8--7-8-7--------------8-7-8--7-8-7-----------------8--10-9-10-9-10-9

 

D--10-9-10-9-12-10-------------------10-9-10--9-10-11--12--12\---

A-------------------10--9-10--9-10-9-----------------------------

END ON

A-4--4\16

 

 

Return to my to my No Doubt bass tabs page

The Tablature is Copyright its respective owners.

Sign Up For My Newsletter
Subscribe | Unsubscribe

Site Map | Disclaimer | Privacy Policy | Media Kit | Submissions/Corrections

Website © 2000-2014 mattsmusicpage.com. All rights reserved.

Legal & DMCA: Matt's Music Page has been providing lyrics and tabs in a legal way, paying royalties each year to a few organizations. Then, all lyrics and tabs were removed from the site. Now, there's a new owner to the site, which purchased it August 26, 2014, and he is in negotiation to obtain licensing from BMI at the moment. If you have a specific DMCA request -- please do not hesitate to contact me via the contact button on top. I will do my very best to keep this site fully legal.

Get our toolbar!

 

1939 LYRIC THEATRE New York PHOTO
$5.83
1939 LYRIC THEATRE New York PHOTO picture


Star Spangled Banner or Marines Hymn lyrics signed by WWII Charles W. Lindberg
$10.0
Star Spangled Banner or Marines Hymn lyrics signed by WWII Charles W. Lindberg picture


OLD LARGE HISTORIC PHOTO OF THE LYRIC THEATRE, SYDNEY c1930s, WAR BONDS BOOTH
$7.42
OLD LARGE HISTORIC PHOTO OF THE LYRIC THEATRE, SYDNEY c1930s, WAR BONDS BOOTH picture


SONG OF REVOLUTION CARD SET WITH 13 MOST FAVORED COMMUNIST SONGS LYRICS + NOTES
$24.99
SONG OF REVOLUTION CARD SET WITH 13 MOST FAVORED COMMUNIST SONGS LYRICS + NOTES picture


OLD LARGE HISTORIC PHOTO OF THE LYRIC THEATRE, SYDNEY c1930s, WAR LOANS BOOTH
$7.42
OLD LARGE HISTORIC PHOTO OF THE LYRIC THEATRE, SYDNEY c1930s, WAR LOANS BOOTH picture