Your One-Stop Source For
Music Lyrics
Bass and Guitar Tabs
and More...
Music Lyrics Bass and Guitar Tabs

 

The Tabs Are Below

Learn To Read Tab
Chords Handbook
Corrections & Additions
Get Official Tab
No Doubt tabs @ 911Tabs

Simple Kind Of Life

no doubt

tabbed by adrian young want no doubt tabs e-mail jt4467@aol.com

Cool song it's done on a five string was hard to tab

 

verse 1 big spaces in between listen for timing

E----------I--------------5------I----------------------I------33---------

B-1/2-3-0-3I-0-0-1-0-1-1----3-3-3I-0-0-1-0-1-0-3/6-3-3-3I-1-0-1--1-0-3-3-3

 

CHOURS

G-16-16-16-16-16-16-16-16-16\----------------------------------------

D-14-14-14-14-14-14-14-14-14\----------------------------------------

A-15-15-15-15-15-15-15-15-15\--0-0-3-3-3-3-3-3-3\10-10-10-10-10-12-12\

 

D----------------------3--3-5------------------9-------12-9-----------

A--------3---3-----3/5--5-----3-3-3-3-3-3-3\10---10-10------10\3-3-3-3

E-1-3/5----5---6-6----------------------------------------------------

 

D---------------------------------------------------------------------

A-3-3-3-3\10-10-10-10-10-12-12--------3---3-----------3---3-5-3-3-3-3-

E------------------------------1-3\5----5---6-6-1-3-5---5-------------

 

D-----------9-------9--------

A-3-3-3\10----10-10---10-10\-

VERSE 2

 

A-3-3-3-3-3-3-3-3-3\--REST---3-3-3/10-10-10-3-----------3-3-5-5-5-5-5-5

E---------------------------------------------0-3-0-5-0----------------

 

D--7-7---------5/---------------5-5\7---------5-------------7-7--------

A------7-7-8-8----3-3-3-3-3-3-3-------7-7-8-8---5-5-5-5-5-5-----7-7-8-8

 

D-5/7--

A-----3-3-5/10-10-10-3-----------5-

E----------------------0-3-0-5-0---

CHOURS2

D------------------------------7------------------------------------------

A-3-3-3-3-3-3-3\10-10-10-0-5/7---7\-------3---3---------------5-5-3-3-3/10

E-----------------------------------1-3\5---5---6-6-0-1-0-3-0-------------

 

D-------9---------------------------------------------------5\7\------

A-10-10---10-10-10-10-12-12\-0-3-3-3-3-3-3-3\10-10-10-0-5\7-----------

E----------------------------------------------------------------1-3\5

 

A-3---3-------------------3-3-3\10-10-10-0-3--3-3-3\10-10-10\-

E---5---6-6-0-1-0-3-0-5-0-------------------------------------

BRIDGE

D----7-----------7---------7----------7---7---------7----------7-------

A--5-------2---5-----2---5------2---5---7-----2---5------2---5------1--

E--------5---5-----4---4------3---3---------5---5------4---4------3---3

 

 

Return to my to my No Doubt bass tabs page

The Tablature is Copyright its respective owners.

Sign Up For My Newsletter
Subscribe | Unsubscribe

Site Map | Disclaimer | Privacy Policy | Media Kit | Submissions/Corrections

Website © 2000-2014 mattsmusicpage.com. All rights reserved.

Legal & DMCA: Matt's Music Page has been providing lyrics and tabs in a legal way, paying royalties each year to a few organizations. Then, all lyrics and tabs were removed from the site. Now, there's a new owner to the site, which purchased it August 26, 2014, and he is in negotiation to obtain licensing from BMI at the moment. If you have a specific DMCA request -- please do not hesitate to contact me via the contact button on top. I will do my very best to keep this site fully legal.

Get our toolbar!