Your One-Stop Source For
Music Lyrics
Bass and Guitar Tabs
and More...
Music Lyrics Bass and Guitar Tabs

 

The Tabs Are Below

Learn To Read Tab
Chords Handbook
Corrections & Additions
Get Official Tab
No Doubt tabs @ 911Tabs

No Doubt – Running

Tabbed by: sinniecoyote

 

 

Intro (0:50)

G|---5---5---5---5---9---9---9---9-------------------------------------------------|

D|-------------------------------------7-----7-----5-----5-----3-----3-----5-----5-|

A|-3---3---3---3---7---7---7---7---------------------------------------------------|

E|---------------------------------(5)---(5)---(3)---(3)---(1)---(1)---(3)---(3)---|

 

G|---5---5---5---5---9---9---9---9--------------------------------|

D|-----------------------------------8---8--8---8---5---5---3---3-|

A|-3--33---3--33---7--77---7--77----------------------------------|

E|---------------------------------5--55--5--55---3--33---1--11---|

 

G|---5---5---5---5---9---9---9---9---------------------------------|

D|-----------------------------------7---7---5---5---3---3---5---5-|

A|-3---3---3---3---7---7---7---7-----------------------------------|

E|---------------------------------5---5---3---3---1---1---3---3---|

 

Verse

G|--55--55--55--5-7-9--99--99--9-----------------------------------|

D|-------------------------------9-77--77--77--7-7-55--55--33--3-3-|

A|-3--33--33--33-5-7-77--77--77------------------------------------|

E|------------------------------7-5--55--55--55-5-3--33--31--11-1--|

 

G|---5---5---5---5---9---9---9---9-------------------------------------------------|

D|-------------------------------------7-----7-----5-----5-----3-----3-----5-----5-|

A|-3---3---3---3---7---7---7---7---------------------------------------------------|

E|---------------------------------(5)---(5)---(3)---(3)---(1)---(1)---(3)---(3)---|

 

Chorus

G|--55--55--55--5-7-9--99--99--9-----------------------------------|

D|-------------------------------9-77--77--77--7-7-55--55--33--3-3-|

A|-3--33--33--33-5-7-77--77--77------------------------------------| X2

E|------------------------------7-5--55--55--55-5-3--33--31--11-1--|

 

Bridge

G|----------------------|

D|----------------------|

A|-3--------------------|

E|------0----5----3--1--|

 

Outro

G|--55--55--55--5-7-9--99--99--9-----------------------------------|

D|-------------------------------9-77--77--77--7-7-55--55--33--3-3-|

A|-3--33--33--33-5-7-77--77--77------------------------------------| X2

E|------------------------------7-5--55--55--55-5-3--33--31--11-1--|

 

 

Return to my to my No Doubt bass tabs page

The Tablature is Copyright its respective owners.

Sign Up For My Newsletter
Subscribe | Unsubscribe

Site Map | Disclaimer | Privacy Policy | Media Kit | Submissions/Corrections

Website © 2000-2014 mattsmusicpage.com. All rights reserved.

Legal & DMCA: Matt's Music Page has been providing lyrics and tabs in a legal way, paying royalties each year to a few organizations. Then, all lyrics and tabs were removed from the site. Now, there's a new owner to the site, which purchased it August 26, 2014, and he is in negotiation to obtain licensing from BMI at the moment. If you have a specific DMCA request -- please do not hesitate to contact me via the contact button on top. I will do my very best to keep this site fully legal.

Get our toolbar!