Your One-Stop Source For
Music Lyrics
Bass and Guitar Tabs
and More...
Music Lyrics Bass and Guitar Tabs

 

The Tabs Are Below

Learn To Read Tab
Chords Handbook
Corrections & Additions
Get Official Tab
No Doubt tabs @ 911Tabs

BND E. Stefani, T. Kanal

Guitar tablature transcribed by Bill Zang: zang@mail.sdsu.edu

 

 

e|--------------------|

B|------10--10--------|

G|--9---10--10---9----|

D|-10---10--10--10----|

A|-10----8---8--10----|

E|--8------------8----|

X 4

 

 

You really need to listen to the CD for this part...but I think the rhythm is right.

 

 

e|---------8-x-x-7/-8---8--x-x--8--|--------8--x----x--------------8--8--|

B|---------8-x-x-7/-8---8--x-x--8--|--------8--x--8-x-11--11--10---8--8--|

G|-----9---9-x-x-8/-9---9--x-x--9--|----9---9--x--9-x--9---9---9---9--9--|

D|--10----10-x-x-9/10--10--x-x-10--|-10----10--x-10-x-10--10--10--10-10--|

A|---------------------------------|-------------------------------------|

E|---------------------------------|-------------------------------------|

X 4

 

 

This riff starts during the end of the last measure above.

e|-------------------------| |--------------------------------------|

B|-------------------------| |--------------------------------------|

G|--5----------------------| |--4-4-4-4--5-5-5-5--7-7-7-7--8-8-8-8--|

D|-----8--5--4-------------| |--5-5-5-5--6-6-6-6--8-8-8-8--9-9-9-9--|

A|--------------8--6-------| |--5-5-5-5--6-6-6-6--8-8-8-8--9-9-9-9--|

E|--------------------8----| |--3-3-3-3--4-4-4-4--6-6-6-6--7-7-7-7--|

X 2

 

 

e|----------------------------------------------------

B|--------------10-10-10-10---------------10-10-10-10-

G|--9--9--9--9--10-10-10-10---9--9--9--9--10-10-10-10-

D|-10-10-10-10--10-10-10-10--10-10-10-10--10-10-10-10-

A|-10-10-10-10---8--8--8--8--10-10-10-10---8--8--8--8-

E|--8--8--8--8----------------8--8--8--8--------------

 

 

e|----------------------------------|

B|--------10-10---------10-10-------|

G|--9--9--10-10---9--9--10-10---9---|

D|-10-10--10-10--10-10--10-10--10---|

A|-10-10---8--8--10-10---8--8--10---|

E|--8--8----------8--8----------8---|

 

 

 

 

Return to my to my No Doubt tabs page

The Tablature is Copyright its respective owners.

Sign Up For My Newsletter
Subscribe | Unsubscribe

Site Map | Disclaimer | Privacy Policy | Media Kit | Submissions/Corrections

Website © 2000-2014 mattsmusicpage.com. All rights reserved.

Legal & DMCA: Matt's Music Page has been providing lyrics and tabs in a legal way, paying royalties each year to a few organizations. Then, all lyrics and tabs were removed from the site. Now, there's a new owner to the site, which purchased it August 26, 2014, and he is in negotiation to obtain licensing from BMI at the moment. If you have a specific DMCA request -- please do not hesitate to contact me via the contact button on top. I will do my very best to keep this site fully legal.

Get our toolbar!

 

1939 LYRIC THEATRE New York PHOTO
$5.83
1939 LYRIC THEATRE New York PHOTO picture


Star Spangled Banner or Marines Hymn lyrics signed by WWII Charles W. Lindberg
$10.0
Star Spangled Banner or Marines Hymn lyrics signed by WWII Charles W. Lindberg picture


OLD LARGE HISTORIC PHOTO OF THE LYRIC THEATRE, SYDNEY c1930s, WAR BONDS BOOTH
$7.42
OLD LARGE HISTORIC PHOTO OF THE LYRIC THEATRE, SYDNEY c1930s, WAR BONDS BOOTH picture


SONG OF REVOLUTION CARD SET WITH 13 MOST FAVORED COMMUNIST SONGS LYRICS + NOTES
$24.99
SONG OF REVOLUTION CARD SET WITH 13 MOST FAVORED COMMUNIST SONGS LYRICS + NOTES picture


OLD LARGE HISTORIC PHOTO OF THE LYRIC THEATRE, SYDNEY c1930s, WAR LOANS BOOTH
$7.42
OLD LARGE HISTORIC PHOTO OF THE LYRIC THEATRE, SYDNEY c1930s, WAR LOANS BOOTH picture