Your One-Stop Source For
Music Lyrics
Bass and Guitar Tabs
and More...
Music Lyrics Bass and Guitar Tabs

 

The Tabs Are Below

Learn To Read Tab
Chords Handbook
Corrections & Additions
Get Official Tab
No Doubt tabs @ 911Tabs

Just a Girl

By No Doubt

Tab Written by Jeff Mitchell (remitch@ix.netcom.com)

Another very detailed tab by yours truly! Have fun! Don't get confused!

Believe it or not, you WILL get it! Keep playin'! :)

 

h h w h h H e e H e e q

|-----7--|-----|-----7--|-----7\0--||---------r---||--7\0--------r--------------

|--7-----|--7--|--7-----|--7-------||*--0--0--e--*||-------0--0--e--------------

|--------|-----|--------|----------||*--------s--*||-------------s--x--x--x-----

|--------|-----|--------|----------||---------t---||-------------t--------------

 

 

q e e q s s E e e q q e e e e e e

r--|--------r-----------r--|-------------r-----------r--|-----------------------

e--|--0--0--e-----------e--|-------0--0--e-----------e--|--0--0-----0-----0-----

s--|--------s--x--x--x--s--|--7h9--------s--x--x--x--s--|--------2-----1--------

t--|--------t-----------t--|-------------t-----------t--|-----------------------

 

 

e e CHORUS q s s s s q s s s s q s s s s q s s s s

----------------||------------------------------|-------------------------------

---2------------||*-----2h4--2p0-----0h2--0-----|------------------0h2--0-------

0---------------||*--2------------0----------0--|-----3h5--3p0--0----------0----

----------------||------------------------------|--3----------------------------

 

 

s s s s s s s s s s s s s s s s s s s s s s s

--||-----------r-----------r-----------r-----------r--|-----------r-------------

-*||-----------e-----------e-----------e-----------e--|-----------e-------------

h*||-----------s-----------s-----------s-----------s--|--3--3--3--s--3--3--3----

--||--3--3--3--t--3--3--3--t--3--3--3--t--3--3--3--t--|-----------t-------------

 

 

s s s s s s s s s h h H e e H

r-----------r-----------r--|-----7--|-----7\0--||---------r---||--7\0--||-------

e-----------e-----------e--|--7-----|--7-------||*--0--0--e--*||-------||*------

s--3--3--3--s--3--3--3--s--|--------|----------||*--------s--*||-------||*------

t-----------t-----------t--|--------|----------||---------t---||-------||-------

 

 

q q e e q e e q q q s s s s q s s s s q s

----------------------------||-----||------------------------------|------------

0--0--------0--------0--2--*||-----||*-----2h4--2p0-----0h2--0-----|------------

------2--2-----1--1--------*||-----||*--2------------0----------0--|-----3------

----------------------------||-----||------------------------------|--3---------

 

 

s s s q s s s s s s s s s s s s s s s s s s s s

-----------------------||-----------r-----------r-----------r-----------r--|----

------------0h2--0----*||-----------e-----------e-----------e-----------e--|----

h5--3p0--0----------0h*||-----------s-----------s-----------s-----------s--|----

-----------------------||--3--3--3--t--3--3--3--t--3--3--3--t--3--3--3--t--|----

 

 

s s s s s s s s s s s s s s s s e e e e e e e e

---------r-----------r-----------r-----------r--||------------------------------

---------e-----------e-----------e-----------e--||*-----------------------------

3--3--3--s--3--3--3--s--3--3--3--s--3--3--3--s--||*--2--2--2--2--0--0--0--0-----

---------t-----------t-----------t-----------t--||------------------------------

 

 

e e e e e e e e s s s s s s s s s s s s s s s

|---------------------------||-----------r-----------r-----------r--------------

|--------------------------*||-----------e-----------e-----------e--------------

|--------------0--0--0--0--*||-----------s-----------s-----------s--------------

|--3--3--3--3---------------||--3--3--3--t--3--3--3--t--3--3--3--t--3--3--3-----

 

 

s s s s s s s s s s s s s s s s s h h w h h

r--|-----------r-----------r-----------r-----------r--|-----7--|-----|-----7----

e--|-----------e-----------e-----------e-----------e--|--7-----|--7--|--7-------

s--|--3--3--3--s--3--3--3--s--3--3--3--s--3--3--3--s--|--------|-----|----------

t--|-----------t-----------t-----------t-----------t--|--------|-----|----------

 

 

H e e H e e e e e e e e q s s s s q

|-----7\0--||---------r---||-----------------------------||---------------------

|--7-------||*--0--0--e--*||--0--0-----0-----0-----2-----||*-----2h4--2p0-------

|----------||*--------s--*||--------2-----1-----0--------||*--2------------0----

|----------||---------t---||-----------------------------||---------------------

 

 

s s s s q s s s s q s s s s q s s s s q s s s s q

-----------|-----------------------------||-----------------------------|-------

0h2--0-----|------------------0h2--0----*||-----2h4--2p0-----0h2--0-----|-------

--------0--|-----3h5--3p0--0----------0h*||--2------------0----------0--|-------

-----------|--3--------------------------||-----------------------------|--3----

 

 

s s s s s^ s^ s^ q s s s s q s s s s q^ q^ q^ q^ q^ q^ q s

----------2--------|--------------------------------------2--------|------------

-------------4--0--|-----2h4--2p0-----0h2--0-----------0-----4--0--|-----2------

3h5--3p0-----------|--2------------0----------0-----2--------------|--2---------

-------------------|-----------------------------3-----------------|------------

 

 

s s s q^ q^ q^ q^ q^ q^ q^ q^ q^ q s s s s q s s s s q s s

---------2--------------------------|-----------------------------|-------------

h4--2p0-----4--0--------0--------2--|-----2h4--2p0-----0h2--0-----|-------------

---------------------2-----0--4-----|--2------------0----------0--|-----3h5-----

------------------3-----------------|-----------------------------|--3----------

 

 

s s q s s s s s s s s s s s s s s s s s s s s s

-------------------||------------r-----------r-----------r-----------|----------

--------0h2--0-----||*-----------e-----------e-----------e-----------|----------

3p0--0----------0--||*-----------s-----------s-----------s-----------|--3--3----

-------------------||---3--3--3--t--3--3--3--t--3--3--3--t--3--3--3--|----------

 

 

s s s s s s s s s s s s s s E e e Q q E e e

---r-----------r-----------r-----------r---||----------r-----|-------------r----

---e-----------e-----------e-----------e--*||----------e-----|-------------e----

3--s--3--3--3--s--3--3--3--s--3--3--3--s--*||----------s-----|--3--3--4/3--s----

---t-----------t-----------t-----------t---||--3--4/3--t--3--|-------------t----

 

 

E w

---|-----|----------------------------------------------------------------------

---|-----|----------------------------------------------------------------------

3--|--2--|----------------------------------------------------------------------

---|-----|----------------------------------------------------------------------

 

 

 

 

================================================================================

== TABLATURE EXPLANATION ==

================================================================================

 

---------- ----------

----5h8--- Hammeron ----(8)--- Ghost Note

---------- ----------

----5p8--- Pulloff ----------

 

---------- ----------

----5/8--- Slide Up -----x---- Dead Note

---------- ----------

----5\8--- Slide Down ----------

 

---------- ||------|| Repeat Start & End

----5~~~-- Vibrato ||*----*||

---------- ||*----*||

---------- ||------||

 

Rhythm:

w = whole note W = dotted whole

h = half note H = dotted half

q = quarter note Q = dotted quarter

e = eighth note E = dotted eighth

s = sixteenth note S = dotted sixteenth

^ = triplet

 

 

Return to my to my No Doubt bass tabs page

The Tablature is Copyright its respective owners.

Sign Up For My Newsletter
Subscribe | Unsubscribe

Site Map | Disclaimer | Privacy Policy | Media Kit | Submissions/Corrections

Website © 2000-2014 mattsmusicpage.com. All rights reserved.

Legal & DMCA: Matt's Music Page has been providing lyrics and tabs in a legal way, paying royalties each year to a few organizations. Then, all lyrics and tabs were removed from the site. Now, there's a new owner to the site, which purchased it August 26, 2014, and he is in negotiation to obtain licensing from BMI at the moment. If you have a specific DMCA request -- please do not hesitate to contact me via the contact button on top. I will do my very best to keep this site fully legal.

Get our toolbar!