Your One-Stop Source For
Music Lyrics
Bass and Guitar Tabs
and More...
>Music Lyrics Bass and Guitar Tabs

 

The Tabs Are Below

Learn To Read Tab
Chords Handbook
Corrections & Additions
Get Official Tab
No Doubt tabs @ 911Tabs

No Doubt - In My Head

Tabbed By GuyHillson (@hotmail.com)

 

h: hammer-on

p: pull-off

~: let ring

 

Verse

G |--------------|

D |---4-0-4-2--4-|

A |-2------------|

E |--------------|

 

Chorus

G |----------------------------|

D |---4~0~4~2~~4~~--4~0~-------|

A |-2~------------2~-----------|

E |---------------------0~~2~~-|

 

Interlude

G |---------------------------------------------------------------:

D |-2~22h4p2~-2-22h4p2~-----------------------0~00h2p0~-0-00h2p0~-:

A |----------------------2~22h4p2~-2-22h4p2~----------------------:

E |---------------------------------------------------------------:

1st Time 2nd Time

G :---------------------| G :--------------|

D :---------------------| D :--------------|

A :-0~00h2p0~-0-00h2p0~-| A :-0~00h2p0~0~~-|

E :---------------------| E :--------------|

 

Outro (nice'n fast)

G |------------------------------------------------------------------|

D |---------00404000------------------------00400400|end here 4th time

A |-22222222------------------------22222222-------------------------|

E |-----------------0000000022222222----------------0000000022222222-|

 

verse x4, chorus, verse x6, chorus, verse x4, interlude x2, outro x4

 

 

Return to my to my No Doubt bass tabs page

The Tablature is Copyright its respective owners.

Sign Up For My Newsletter
Subscribe | Unsubscribe

Site Map | Disclaimer | Privacy Policy | Media Kit | Submissions/Corrections

Website © 2000-2014 mattsmusicpage.com. All rights reserved.

Legal & DMCA: Matt's Music Page has been providing lyrics and tabs in a legal way, paying royalties each year to a few organizations. Then, all lyrics and tabs were removed from the site. Now, there's a new owner to the site, which purchased it August 26, 2014, and he is in negotiation to obtain licensing from BMI at the moment. If you have a specific DMCA request -- please do not hesitate to contact me via the contact button on top. I will do my very best to keep this site fully legal.

Get our toolbar!

 

WHITE Milk QUARTZ Worry Stone Crystal Amplifier Channeling 18882
$9.25
 WHITE Milk QUARTZ Worry Stone Crystal Amplifier Channeling 18882 picture


VINTAGE PLUG-IN AMPLIFIER MODEL 120 by TM SYSTEMS
$5.99
VINTAGE PLUG-IN AMPLIFIER MODEL 120 by TM SYSTEMS picture


Vintage US Military AM-6669/PRC Radio Amplifier 098190-0100 Serial # 238
$119.99
Vintage US Military AM-6669/PRC Radio Amplifier 098190-0100 Serial # 238  picture


MT-759 MOUNTING PLATE f/AM-598 AMPLIFIER POWER SUPPLY f/PRC-10 MILITARY RADIO
$21.0
MT-759  MOUNTING PLATE f/AM-598 AMPLIFIER POWER SUPPLY f/PRC-10 MILITARY RADIO picture


KD704 AUDIO CABLE GRC-9 TRANSMITTER AMPLIFIER VINTAGE
$15.0
KD704 AUDIO CABLE GRC-9 TRANSMITTER AMPLIFIER VINTAGE picture