Your One-Stop Source For
Music Lyrics
Bass and Guitar Tabs
and More...
>Music Lyrics Bass and Guitar Tabs

 

The Tabs Are Below

Learn To Read Tab
Chords Handbook
Corrections & Additions
Get Official Tab
No Doubt tabs @ 911Tabs

Hey You

by No Doubt

 

Intro

 

G -------------

D -------------

A 3333333333333

E -------------

 

Verse

 

G ---------

D ---------

A 55-0---34

E ----55---

 

every second or so times it changes to this

 

G ----------

D ----------

A 55-0--3---

E -----5--5-3

 

Pre-Chorus

 

G -------------

D -------------

A -------------

E 33-0-0-5-0-5-0 x3 then

 

G --------

D --------

A --3---\10

E 33-------

 

Chorus

 

G ---------------------------

D ------14--14-14------------

A 55-\12--12------12--55---34

E -----------------------55---

 

G ------------------------------

D ------14--14-14---------------

A 55-\12--12------12--55--3--3-5

E -----------------------5--5---

 

G ----------------------------

D ------14--14-14-------------

A 55-\12----------12--55---34-

E -----------------------55---

 

G -----

D -----

A 33333

E -----

 

Play verse then chorus x2 except play this as a fill halfway through the second chorus

 

G ----------

D 4-5-7-5-4-

A ----------5

E -----------

 

play verse during the little solo part then

 

G ---------------------------------

D -----------------------4-5-7-5-4-

A 5--------------05----------------5

E ----------------------------------

 

then back to the pre-chorus x2 then chorusx5

 

Ending

 

G ------------------------

D ------------------------

A 4---5---7---5---4--------

E --------------------5---3

 

might be a bit confusing but play with the cd for the timing and its no problem.

 

tabbed by funkymutha (wannabeflea@msn.com)

 

If you any more No Doubt songs that need tabbing then let me know and consider it done

 

 

Return to my to my No Doubt bass tabs page

The Tablature is Copyright its respective owners.

Sign Up For My Newsletter
Subscribe | Unsubscribe

Site Map | Disclaimer | Privacy Policy | Media Kit | Submissions/Corrections

Website © 2000-2014 mattsmusicpage.com. All rights reserved.

Legal & DMCA: Matt's Music Page has been providing lyrics and tabs in a legal way, paying royalties each year to a few organizations. Then, all lyrics and tabs were removed from the site. Now, there's a new owner to the site, which purchased it August 26, 2014, and he is in negotiation to obtain licensing from BMI at the moment. If you have a specific DMCA request -- please do not hesitate to contact me via the contact button on top. I will do my very best to keep this site fully legal.

Get our toolbar!

 

Hard Rock Cafe Las Vegas Plying Cards Guitar Travel Souvenir Pin
$5.99
Hard Rock Cafe Las Vegas Plying Cards Guitar Travel Souvenir Pin picture


Framed Washburn 1982 Moody Blues John Lodge Festival Series guitar print ad
$11.99
Framed Washburn 1982 Moody Blues John Lodge Festival Series guitar print ad picture


Framed Howard Roberts Guitar Seminar vintage print ad
$11.99
Framed Howard Roberts Guitar Seminar vintage  print ad picture


Framed Westbury 1979 Track IV bass Custom & Baroque guitar print ad
$11.99
Framed Westbury 1979 Track IV bass Custom & Baroque guitar print ad picture


Framed Washburn 1980 Harvey Mandel Wing Series Falcon guitar print ad
$11.99
Framed Washburn 1980 Harvey Mandel Wing Series Falcon guitar print ad picture