Your One-Stop Source For
Music Lyrics
Bass and Guitar Tabs
and More...
Music Lyrics Bass and Guitar Tabs

 

The Tabs Are Below

Learn To Read Tab
Chords Handbook
Corrections & Additions
Get Official Tab
No Doubt tabs @ 911Tabs

No Doubt - Excuse Me Mr.

Submitted By: Robert

(G. Stefani / T. Dumont)

 

Intro

G----------------------------------------------------------

D-----------------------5-7-8-7-5-----------5-7-8-7-5------

A-----------------5-7-8-----------8-7-5-7-8-----------8-7--

E-333333333333333------------------------------------------

_______________

Slap these note lightly

 

Repeat x2

G-----------------------------------------------------------------------------

D ----------------------------------------------------------------------------

A-5-5--5-8-8--8---------------5-5-5-5--8-8-8-8----13-13-13-13----10-10-10-10--

E---------------6-6--6-3-3--3-------------------------------------------------

 

G-----------------------------------------------------

D-----------------------------------------------------

A|:-------------------1-1-1-1-3-3-3-3 :| x4-----------

E|:-5-5-5-5-3-3-3-3-------------------:| x4-------1~~~~~- hold for a sec.

 

Fill 1

G-------------5-7-9-10-9-

D-------5-7-8-------------

A-5-7-8--------------------

E---------------------------

 

Pre-Chorus

G-----------------------------------------------------------------------10-9-7----

D---------------------------------------------------------------8-8-8-8-----------

A------------------1-1-1-1-3-3-3-3--------8-8-8-8---10-10-10-10-------------------

E--3-3-3-3-5-5-5-5----------------------------------------------------------------

Continues

G----------------------------------------------------------------

D------7-7-7-7-5-------------------------------------------------

A------------------7-5-7-8-----------------------------6-7-------

E------------------------------8-8-8-8--10-10-10-10--------------

 

G----------------------------------------------------------

D----------------------------------------------------------

A---------------------------1-1-1-1-3-3-3-3----------------

E------3-3-3-3--5-5-5-5------------------------------------

 

Chorus 1 - the album version is the same as the live version but without slapping and played with single notes.

G------------------------------------------------------------------------------------D------------------------------------------------------------------------------------A-----3-3-----3-------7-7-----7---5-5-----5-5---------5-5-----------5-5-----5---3-3---3-3-2-2-

E-1-1-----1-1---1-5-5-----5-5---5-----5-5-----5-4-3-3-----3-1-2-3-3-----3-3---3-----3-3--

 

G-----------------------------------------

D-----------------------------------------

A-1-1----1-1---1-3-3-1-1---------- x2

E-----1-1----1------------5-5-3-3- x2

 

Fill 2

 

G------------------------------------------------------------------------- D------------------8-8-8-8-10-10-10-10-----------------------10>12--8-7---

A----------------------------------------8-8-8-8-10-10-10-10--------------

E-------------------------------------------------------------------------

 

continues

G---------------------------------------------------------------------------

D---------------------------------------------------------------------------

A-5-5-5-3-3-3-3-0-0-0-0-1-1-1-1---------3-3-3-3-----------------------------

E-------------------------------3-3-3-3-------------------------------------

 

ENDING Then end it on this

G----------------------------------------------- G-------------------

D-------------------1-2-3-3-3-3--5-5-5-5-6------ D----3--------------

A--1-1-1-1-3-3-3-3------------------------------ A-------------------

E----------------------------------------------- E-----------------3-

I know it for a fact that this tab for this song is at least 95% right!so enjoy it!

 

 

Return to my to my No Doubt bass tabs page

The Tablature is Copyright its respective owners.

Sign Up For My Newsletter
Subscribe | Unsubscribe

Site Map | Disclaimer | Privacy Policy | Media Kit | Submissions/Corrections

Website © 2000-2014 mattsmusicpage.com. All rights reserved.

Legal & DMCA: Matt's Music Page has been providing lyrics and tabs in a legal way, paying royalties each year to a few organizations. Then, all lyrics and tabs were removed from the site. Now, there's a new owner to the site, which purchased it August 26, 2014, and he is in negotiation to obtain licensing from BMI at the moment. If you have a specific DMCA request -- please do not hesitate to contact me via the contact button on top. I will do my very best to keep this site fully legal.

Get our toolbar!