Your One-Stop Source For
Music Lyrics
Bass and Guitar Tabs
and More...
Music Lyrics Bass and Guitar Tabs

 

The Tabs Are Below

Learn To Read Tab
Chords Handbook
Corrections & Additions
Get Official Tab
Nirvana tabs @ 911Tabs

NIRVANA - Bleach

Tabbed by Kieren Hudson.

if anyone has comments, or suggestions mail me at kieren@mail.org

 

TABULATURE DEFINITION

) = bend

/ = slide up

\ = slide down

~~ = vibrato

PM = palm mute

)r = bend and release

^ = hammeron/pulloff

x/x = pickscrape

* = uncontrolled feedback

NH = natural harmonic

 

 

 

School

intro

e----------------------------------------------------------------------------

b----------------------------------------------------------------------------

g----------------------------------------------------------------------------

d----------------------------------------------------------------------------

a----------------------------------------------------------------------------

e--0~~~~~----------(0)~~~~~~-------------------------------------------------

 

verse

e----------------------------------------------------------------------------

b----------------------------------------------------------------------------

g----------------------------------------------------------------------------

d----------------------------------------------------------------------------

a------------)r-----)r----------------)--------------------------------------

e--0--0--0--5---0--5--0--0--0--0--0--5---------------------------------------

 

chorus

e----------------------------------0---0---0-0--0---0-0-0-0-0-0--------------

b----------------------------------0---0---0-0--0---3-3-3-3-3-3--------------

g--5---5--5-5--5-------------------x---x---x-x--x-0-2-2-2-2-2-2--------------

d--5---5--5-5--5-0--7-7-7-7-7-7----2---2---2-2--2-0-0-0-0-0-0-0--------------

a--3---3--3-3--3-0--7-7-7-7-7-7----2---2---2-2--2----------------------------

e-------------------5-5-5-5-5-5----0---0---0-0--0----------------------------

 

e----------------------------------------------------------------------------

b----------------------------------------------------------------------------

g--5----5--5-5--5------------------------------------------------------------

d--5----5--5-5--5-0-7-7-7-7-7-7----------------------------------------------

a--3----3--3-3--3-0-7-7-7-7-7-7----------------------------------------------

e-------------------5-5-5-5-5-5----------------------------------------------

 

 

bridge

e----------------------------------------------------------------------------

b-------------------------13-13/---------------------------------------------

g-------------------12----12-12/---------------------------------------------

d-------------11----11-------------------------------------------------------

a-------------10--x----------------------------------------------------------

e--0--0--0-------------------------------------------------------------------

 

solo

e---)--)(----)(--------------------------------------------------------------

b--2--2-(2)-2-(2)----------------------------------7-------------------------

g--2--2-(2)-2-(2)-0------------2-0-2-(2)-0-2/7-7-7-7-7-9-(11)\----0----------

d-------------------2-0-2--------------------------------------/9---9^7^0----

a----------------------------------------------------------------------------

e-------------------------3/0------------------------------------------------

 

e----------------------------------------------------------------------------

b-------------)------------------)-------------------------------------------

g--------2-2-2-2-2-2~~~~~-----0-2-0-0-2-(0)-------------2---2/7-7-7-7-9-7----

d--9^7^0------------------0-0---------------2-------2-5---5------------------

a-------------------------------------------------5--------------------------

e---------------------------------------------5-0----------------------------

 

e------------------)---)-10-10-10^9^7----7-----------------------------------

b--11-8---8^10-8^10--10---------------10---10-10-10^8------------------------

g-------0---------------------------------------------9-7-7-9-7-7-9-9-9~~~~~-

d----------------------------------------------------------------------------

a----------------------------------------------------------------------------

e----------------------------------------------------------------------------

 

e----------------------------------------------------------------------------

b-------------------)--------------------------------------------------------

g--9-7-7-7\6-6-6\4-4--2-2^0-2~~~~~~~~~~~-------------------------------------

d----------------------------------------------------------------------------

a----------------------------------------------------------------------------

e-----------------------------------------(12)\------------------------------

 

Return to my to my Nirvana tabs page

The Tablature is Copyright its respective owners.

Sign Up For My Newsletter
Subscribe | Unsubscribe

Site Map | Disclaimer | Privacy Policy | Media Kit | Submissions/Corrections

Website © 2000-2014 mattsmusicpage.com. All rights reserved.

Legal & DMCA: Matt's Music Page has been providing lyrics and tabs in a legal way, paying royalties each year to a few organizations. Then, all lyrics and tabs were removed from the site. Now, there's a new owner to the site, which purchased it August 26, 2014, and he is in negotiation to obtain licensing from BMI at the moment. If you have a specific DMCA request -- please do not hesitate to contact me via the contact button on top. I will do my very best to keep this site fully legal.

Get our toolbar!

 

1939 LYRIC THEATRE New York PHOTO
$5.83
1939 LYRIC THEATRE New York PHOTO picture


Star Spangled Banner or Marines Hymn lyrics signed by WWII Charles W. Lindberg
$10.0
Star Spangled Banner or Marines Hymn lyrics signed by WWII Charles W. Lindberg picture


OLD LARGE HISTORIC PHOTO OF THE LYRIC THEATRE, SYDNEY c1930s, WAR BONDS BOOTH
$7.42
OLD LARGE HISTORIC PHOTO OF THE LYRIC THEATRE, SYDNEY c1930s, WAR BONDS BOOTH picture


SONG OF REVOLUTION CARD SET WITH 13 MOST FAVORED COMMUNIST SONGS LYRICS + NOTES
$24.99
SONG OF REVOLUTION CARD SET WITH 13 MOST FAVORED COMMUNIST SONGS LYRICS + NOTES picture


OLD LARGE HISTORIC PHOTO OF THE LYRIC THEATRE, SYDNEY c1930s, WAR LOANS BOOTH
$7.42
OLD LARGE HISTORIC PHOTO OF THE LYRIC THEATRE, SYDNEY c1930s, WAR LOANS BOOTH picture