Your One-Stop Source For
Music Lyrics
Bass and Guitar Tabs
and More...
Music Lyrics Bass and Guitar Tabs

 

The Tabs Are Below

Learn To Read Tab
Chords Handbook
Corrections & Additions
Get Official Tab
Nirvana tabs @ 911Tabs

 

Nirvana

Plateau

 

Intro/Verse (listen to song a lot to get timing)

G:--------------------------------------------|

D:--------------------------------------------|

A:--7-7---10-10---7-7---10-10---7-7---10-10---|

E:------------------------------------------0-|

 

Pre-Chorus 1

G:--------|

D:--------| x1

A:--------|

E:--5/--0-|

 

Chorus

G:----------------------------------------|

D:--------------------------------------9-|

A:------------5--7--8----------5--7--66---|

E:--0-0-x-5-5----------0-0-x-5------------|

 

Outro

G:---------------------|

D:---------------------| X 1

A:--5------------------|

E:----3--5--0---5/---0-|

 

G:-------------------|

D:-------------------|

A:----------5--------| Play for rest of song

E:-0--0--3-----3-4-5-|

 

Return to my to my Nirvana bass tabs page

The Tablature is Copyright its respective owners.

Sign Up For My Newsletter
Subscribe | Unsubscribe

Site Map | Disclaimer | Privacy Policy | Media Kit | Submissions/Corrections

Website © 2000-2014 mattsmusicpage.com. All rights reserved.

Legal & DMCA: Matt's Music Page has been providing lyrics and tabs in a legal way, paying royalties each year to a few organizations. Then, all lyrics and tabs were removed from the site. Now, there's a new owner to the site, which purchased it August 26, 2014, and he is in negotiation to obtain licensing from BMI at the moment. If you have a specific DMCA request -- please do not hesitate to contact me via the contact button on top. I will do my very best to keep this site fully legal.

Get our toolbar!