Your One-Stop Source For
Music Lyrics
Bass and Guitar Tabs
and More...
Music Lyrics Bass and Guitar Tabs

 

The Tabs Are Below

Learn To Read Tab
Chords Handbook
Corrections & Additions
Get Official Tab
Nirvana tabs @ 911Tabs

 

>From : Song transcribed by Mike Davies/ Tab written by Robin Taylor

Artist : Nirvana

Song : Lounge Act

Album : Nevermind

Strings : E, A, D, G

 

 

Lounge Act

==========

 

Intro/Verse.

 

G||----------------|------------|---------------|-------------||

D||-----0-4--------|------------|---------------|-------------||

A||-/2-------------|---/5-3-2-0-|-2--5-4--------|----/3-2-0---||

E||---------2--3-2-|-3----------|--------2--3-2-|--3--------3-||

 

End Verses.

 

G|----------------|----------|

D|-----0-4--------|----------|

A|-/2-------------|----7-555-|

E|---------2--3-2-|-3--------|

 

Chorus.

1. time bar 2. time bar

G||----------------|-------------|--------------|---------------||-------------|

D||--------5/7-5---|-------------|--------------|---------------||-------555---|

A||--------------7-|-5--------56-|-7---0--0-3-4-|-5-0-5---------||-5-0-5-------|

E||-0---5----------|----3--/7----|--------------|-------3--0-3/-||-----------0-|

 

 

 

G|---------|------------|---------|------------||

D|---------|------------|-7-7-7-7-|-666-55-750-||

A|---------|------------|---------|------------||

E|-5-5-5-5-|-444-333-23-|---------|------------||

 

Last Chorus.

1. time bar 2. time bar

G||------------|-------------|------------|---------------||---------------|

D||----7---7---|-------555---|----7---7---|---------------||---------------|

A||-7----7---0-|-5-0-5-----0-|-7----7---0-|-5-0-5------56-||-5-0-5------57-|

E||------------|-------------|------------|-------3--7----||-------3--7----|

 

Coda.

 

G||---------|------------|---------|----------||-----------|

D||---------|------------|-7-7-7-7-|-666-555/-||-----------|

A||---------|------------|---------|----------||-0---------|

E||-5-5-5-5-|-444-333-23-|---------|----------||-----------|

 

 

Return to my to my Nirvana bass tabs page

The Tablature is Copyright its respective owners.

Sign Up For My Newsletter
Subscribe | Unsubscribe

Site Map | Disclaimer | Privacy Policy | Media Kit | Submissions/Corrections

Website © 2000-2014 mattsmusicpage.com. All rights reserved.

Legal & DMCA: Matt's Music Page has been providing lyrics and tabs in a legal way, paying royalties each year to a few organizations. Then, all lyrics and tabs were removed from the site. Now, there's a new owner to the site, which purchased it August 26, 2014, and he is in negotiation to obtain licensing from BMI at the moment. If you have a specific DMCA request -- please do not hesitate to contact me via the contact button on top. I will do my very best to keep this site fully legal.

Get our toolbar!