Your One-Stop Source For
Music Lyrics
Bass and Guitar Tabs
and More...
Music Lyrics Bass and Guitar Tabs

 

The Tabs Are Below

Learn To Read Tab
Chords Handbook
Corrections & Additions
Get Official Tab
Nine Days tabs @ 911Tabs

Song: So Far Away

Band: Nine Days

Tabbed by: Dan Mumford (godofwine@hotmail.com)

 

Standard tuning (capo on 3rd fret)

 

I recently bought Nine Days's debut album 'The Madding Crowd', and this is

definitely one of my favourite songs on the album. Its also really easy to

play.

This tab was done quickly (with guitar in hand) and is pretty basic, but it

can be used as a guideline.

 

Chords:

 

Am G or G6 Em D Cadd9 D*

 

e -0- -3- -0- -0- -2- -0- -2-

B -1- -3- -0- -0- -3- -3- -3-

G -2- -0- -0- -0- -2- -0- -0-

D -2- -0- -0- -2- -0- -2- -0-

A -0- -2- -2- -2- -X- -3- -X-

E -X- -3- -3- -0- -X- -X- -X-

 

 

Intro: Am G Em G

 

 

Verse:

 

 

Am G

 

If you leave, where will you go?

 

Em G

 

Before the regret you hold in your heart will start to show

 

Am G

 

And if you leave, how will you know?

 

Em G

 

If our ever after ever had a chance to grow

 

Am G

 

Do you dream or do you sleep?

 

Em G

 

Do you pick and choose amongst the jewels for one to keep

 

Am G

 

Do you wish upon a star?

 

Em G

 

Or does everything just out of reach seem just too far away

 

 

 

 

 

Chorus:

 

 

G D Cadd9

 

Nothing seems to change

 

D G D Cadd9

 

Let alone you won't forget my name

 

G D Cadd9

 

Just don't lose what you know

 

D G D Cadd9

 

Just don't lose what you know

 

D

 

When you're so far away...

 

 

 

2nd Verse: (same chords)

 

 

...so deep you say

And no matter where you go

It all ends up the same

 

Do you wish upon a star?

Or does everything just out or reach

Seem just too far away

 

 

Chorus

 

 

Solo:

 

 

e--------------------------7-5--------------------------7-5-- play 6 times

B--5-5-5-5-5-5-5-5-5-5-5-5------5-5-5-5-5-5-5-5-5-5-5-5------

G------------------------------------------------------------

D------------------------------------------------------------

A------------------------------------------------------------

E------------------------------------------------------------

 

 

What you lose is what you know

Where you go is where you grow

How near we've come has yet to show

We've come so close yet so far away

So far away

 

 

Bridge:

 

e--2-0-2-0-2-0-2-0-2--- play 12 times

B--3-3-3-3-3-3-3-3-3---

G--0-0-0-0-0-0-0-0-0---

D----------------------

A----------------------

E----------------------

 

 

What did I do to you?

What did I do to you?

 

G D*

 

What did I do to you?

 

G D*

 

What did I do to you?

 

 

Chorus:

 

G D Cadd9

 

Nothing seems to change

 

D G D Cadd9

 

Let alone you wont forget my name

 

Em D

 

Just don't lose what you know

 

Am Cadd9

 

Just don't lose what you know

 

 

 

When you're so far away...

 

 

 

G D Cadd9 D

 

What did I do to you? So far away

 

G D Cadd9 D

 

What did I do to you? So far away

 

G D Cadd9 D

 

What did I do to you? So far away

 

G D Cadd9 D

 

What did I do to you? So far away

 

 

Outro:

 

 

e--2-0-2-0-2-3-2-0--- play 8 times

B--3-3-3-3-3-3-3-3---

G--0-0-0-0-0-0-0-0---

D--------------------

A--------------------

E--------------------

 

Then strum

 

e----3--------0------ play 4 times

B----3--------3------

G----0--------0------

D--------------------

A--------------------

E--------------------

 

Return to my Nine Days tabs page

The Tablature is Copyright its respective owners.

Sign Up For My Newsletter
Subscribe | Unsubscribe

Site Map | Disclaimer | Privacy Policy | Media Kit | Submissions/Corrections

Website © 2000-2014 mattsmusicpage.com. All rights reserved.

Legal & DMCA: Matt's Music Page has been providing lyrics and tabs in a legal way, paying royalties each year to a few organizations. Then, all lyrics and tabs were removed from the site. Now, there's a new owner to the site, which purchased it August 26, 2014, and he is in negotiation to obtain licensing from BMI at the moment. If you have a specific DMCA request -- please do not hesitate to contact me via the contact button on top. I will do my very best to keep this site fully legal.

Get our toolbar!