Your One-Stop Source For
Music Lyrics
Bass and Guitar Tabs
and More...
Music Lyrics Bass and Guitar Tabs

 

The Nickelback Bass Tabs Are Below

Learn To Read Tab
Chords Handbook
Corrections & Additions
Get Official Tab
Nickelback tabs @ 911Tabs

Nickelback

When We Stand Together

 

INTRO

D#| ------------------------|

A#| ------------------------|

F | ------------------------|

A#| -0--0--0--0--0--0--0--0-|

 

 

SONG

D#| ------------------------|

A#| -------------------3----|

F | -------1--1--3--3-----3-|

A#| -0--0-------------------|

 

 

PRE-CHORUS

D#| -------------------------|

A#| -------------------------|

F | -------1--1--3--3/15///3-|

A#| -0--0--------------------|

 

 

END-CHORUS

D#| -------------------1/5-1/7-|

A#| ---------------------------|

F | -------1--1--3--3----------|

A#| -0--0----------------------|

 

 

BRIDGE

D#| -------------------------------------------------------------------------|

A#| ---------------------------------3--------3------------------------------|

F | -1--1--1--3----------3--5--5--5-----3--3-----3---1--1--1--1--3--3/15///0-|

A#| -------------5--5--5-----------------------------------------------------|

 

 

INTRO (1x)

SONG (5x)

 

PRE-CHORUS (1x)

SONG (6x)

END-CHORUS (1x)

 

SONG (3x)

 

PRE-CHORUS (1x)

SONG (6x)

BRIDGE (1x)

 

-nothing- (2x)

 

SONG (7x)

 

/ = fast slide

/// = slow slide

Return to my Nickelback Bass Tabs tabs page

The Tablature is Copyright its respective owners.

Sign Up For My Newsletter
Subscribe | Unsubscribe

Site Map | Disclaimer | Privacy Policy | Media Kit | Submissions/Corrections

Website © 2000-2014 mattsmusicpage.com. All rights reserved.

Legal & DMCA: Matt's Music Page has been providing lyrics and tabs in a legal way, paying royalties each year to a few organizations. Then, all lyrics and tabs were removed from the site. Now, there's a new owner to the site, which purchased it August 26, 2014, and he is in negotiation to obtain licensing from BMI at the moment. If you have a specific DMCA request -- please do not hesitate to contact me via the contact button on top. I will do my very best to keep this site fully legal.

Get our toolbar!